  0
SECTION
  2
HEADER
  9
$ACADVER
  1
AC1015
  9
$ACADMAINTVER
 70
     6
  9
$DWGCODEPAGE
  3
ANSI_1254
  9
$INSBASE
 10
0.0
 20
0.0
 30
0.0
  9
$EXTMIN
 10
0.0
 20
0.0
 30
0.0
  9
$EXTMAX
 10
279.4
 20
215.9
 30
0.0
  9
$LIMMIN
 10
0.0
 20
0.0
  9
$LIMMAX
 10
279.4
 20
215.9
  9
$ORTHOMODE
 70
     0
  9
$REGENMODE
 70
     1
  9
$FILLMODE
 70
     1
  9
$QTEXTMODE
 70
     0
  9
$MIRRTEXT
 70
     1
  9
$LTSCALE
 40
1.0
  9
$ATTMODE
 70
     1
  9
$TEXTSIZE
 40
3.5
  9
$TRACEWID
 40
1.0
  9
$TEXTSTYLE
  7
Standard
  9
$CLAYER
  8
0
  9
$CELTYPE
  6
ByLayer
  9
$CECOLOR
 62
   256
  9
$CELTSCALE
 40
1.0
  9
$DISPSILH
 70
     0
  9
$DIMSCALE
 40
1.0
  9
$DIMASZ
 40
3.5
  9
$DIMEXO
 40
1.0
  9
$DIMDLI
 40
3.75
  9
$DIMRND
 40
0.0
  9
$DIMDLE
 40
0.0
  9
$DIMEXE
 40
1.0
  9
$DIMTP
 40
0.0
  9
$DIMTM
 40
0.0
  9
$DIMTXT
 40
3.5
  9
$DIMCEN
 40
2.5
  9
$DIMTSZ
 40
0.0
  9
$DIMTOL
 70
     0
  9
$DIMLIM
 70
     0
  9
$DIMTIH
 70
     1
  9
$DIMTOH
 70
     1
  9
$DIMSE1
 70
     0
  9
$DIMSE2
 70
     0
  9
$DIMTAD
 70
     1
  9
$DIMZIN
 70
     0
  9
$DIMBLK
  1

  9
$DIMASO
 70
     1
  9
$DIMSHO
 70
     1
  9
$DIMPOST
  1

  9
$DIMAPOST
  1

  9
$DIMALT
 70
     0
  9
$DIMALTD
 70
     3
  9
$DIMALTF
 40
0.0393700787
  9
$DIMLFAC
 40
1.0
  9
$DIMTOFL
 70
     1
  9
$DIMTVP
 40
0.0
  9
$DIMTIX
 70
     0
  9
$DIMSOXD
 70
     0
  9
$DIMSAH
 70
     0
  9
$DIMBLK1
  1

  9
$DIMBLK2
  1

  9
$DIMSTYLE
  2
ISO-25
  9
$DIMCLRD
 70
     0
  9
$DIMCLRE
 70
     0
  9
$DIMCLRT
 70
     0
  9
$DIMTFAC
 40
1.0
  9
$DIMGAP
 40
1.524
  9
$DIMJUST
 70
     0
  9
$DIMSD1
 70
     0
  9
$DIMSD2
 70
     0
  9
$DIMTOLJ
 70
     0
  9
$DIMTZIN
 70
     0
  9
$DIMALTZ
 70
     0
  9
$DIMALTTZ
 70
     0
  9
$DIMUPT
 70
     0
  9
$DIMDEC
 70
     2
  9
$DIMTDEC
 70
     2
  9
$DIMALTU
 70
     2
  9
$DIMALTTD
 70
     3
  9
$DIMTXSTY
  7
Standard
  9
$DIMAUNIT
 70
     0
  9
$DIMADEC
 70
     2
  9
$DIMALTRND
 40
0.0
  9
$DIMAZIN
 70
     0
  9
$DIMDSEP
 70
    44
  9
$DIMATFIT
 70
     3
  9
$DIMFRAC
 70
     0
  9
$DIMLDRBLK
  1

  9
$DIMLUNIT
 70
     2
  9
$DIMLWD
 70
    -2
  9
$DIMLWE
 70
    -2
  9
$DIMTMOVE
 70
     0
  9
$LUNITS
 70
     2
  9
$LUPREC
 70
     2
  9
$SKETCHINC
 40
1.0
  9
$FILLETRAD
 40
10.0
  9
$AUNITS
 70
     0
  9
$AUPREC
 70
     2
  9
$MENU
  1
.
  9
$ELEVATION
 40
0.0
  9
$PELEVATION
 40
0.0
  9
$THICKNESS
 40
0.0
  9
$LIMCHECK
 70
     0
  9
$CHAMFERA
 40
0.0
  9
$CHAMFERB
 40
0.0
  9
$CHAMFERC
 40
0.0
  9
$CHAMFERD
 40
0.0
  9
$SKPOLY
 70
     0
  9
$TDCREATE
 40
2459935.710301389
  9
$TDUCREATE
 40
2459935.585301389
  9
$TDUPDATE
 40
2459935.710301435
  9
$TDUUPDATE
 40
2459935.585301435
  9
$TDINDWG
 40
0.0000000116
  9
$TDUSRTIMER
 40
0.0000000116
  9
$USRTIMER
 70
     1
  9
$ANGBASE
 50
0.0
  9
$ANGDIR
 70
     0
  9
$PDMODE
 70
     0
  9
$PDSIZE
 40
-1.0
  9
$PLINEWID
 40
0.0
  9
$SPLFRAME
 70
     0
  9
$SPLINETYPE
 70
     6
  9
$SPLINESEGS
 70
     8
  9
$HANDSEED
  5
10F
  9
$SURFTAB1
 70
     6
  9
$SURFTAB2
 70
     6
  9
$SURFTYPE
 70
     6
  9
$SURFU
 70
     6
  9
$SURFV
 70
     6
  9
$UCSBASE
  2

  9
$UCSNAME
  2

  9
$UCSORG
 10
0.0
 20
0.0
 30
0.0
  9
$UCSXDIR
 10
1.0
 20
0.0
 30
0.0
  9
$UCSYDIR
 10
0.0
 20
1.0
 30
0.0
  9
$UCSORTHOREF
  2

  9
$UCSORTHOVIEW
 70
     0
  9
$UCSORGTOP
 10
0.0
 20
0.0
 30
0.0
  9
$UCSORGBOTTOM
 10
0.0
 20
0.0
 30
0.0
  9
$UCSORGLEFT
 10
0.0
 20
0.0
 30
0.0
  9
$UCSORGRIGHT
 10
0.0
 20
0.0
 30
0.0
  9
$UCSORGFRONT
 10
0.0
 20
0.0
 30
0.0
  9
$UCSORGBACK
 10
0.0
 20
0.0
 30
0.0
  9
$PUCSBASE
  2

  9
$PUCSNAME
  2

  9
$PUCSORG
 10
0.0
 20
0.0
 30
0.0
  9
$PUCSXDIR
 10
1.0
 20
0.0
 30
0.0
  9
$PUCSYDIR
 10
0.0
 20
1.0
 30
0.0
  9
$PUCSORTHOREF
  2

  9
$PUCSORTHOVIEW
 70
     0
  9
$PUCSORGTOP
 10
0.0
 20
0.0
 30
0.0
  9
$PUCSORGBOTTOM
 10
0.0
 20
0.0
 30
0.0
  9
$PUCSORGLEFT
 10
0.0
 20
0.0
 30
0.0
  9
$PUCSORGRIGHT
 10
0.0
 20
0.0
 30
0.0
  9
$PUCSORGFRONT
 10
0.0
 20
0.0
 30
0.0
  9
$PUCSORGBACK
 10
0.0
 20
0.0
 30
0.0
  9
$USERI1
 70
     0
  9
$USERI2
 70
     0
  9
$USERI3
 70
     0
  9
$USERI4
 70
     0
  9
$USERI5
 70
     0
  9
$USERR1
 40
0.0
  9
$USERR2
 40
0.0
  9
$USERR3
 40
0.0
  9
$USERR4
 40
0.0
  9
$USERR5
 40
0.0
  9
$WORLDVIEW
 70
     1
  9
$SHADEDGE
 70
     3
  9
$SHADEDIF
 70
    70
  9
$TILEMODE
 70
     1
  9
$MAXACTVP
 70
    64
  9
$PINSBASE
 10
0.0
 20
0.0
 30
0.0
  9
$PLIMCHECK
 70
     0
  9
$PEXTMIN
 10
1.0000000000E+20
 20
1.0000000000E+20
 30
1.0000000000E+20
  9
$PEXTMAX
 10
-1.0000000000E+20
 20
-1.0000000000E+20
 30
-1.0000000000E+20
  9
$PLIMMIN
 10
0.0
 20
0.0
  9
$PLIMMAX
 10
420.0
 20
297.0
  9
$UNITMODE
 70
     0
  9
$VISRETAIN
 70
     1
  9
$PLINEGEN
 70
     0
  9
$PSLTSCALE
 70
     1
  9
$TREEDEPTH
 70
  3020
  9
$CMLSTYLE
  2
Standard
  9
$CMLJUST
 70
     0
  9
$CMLSCALE
 40
20.0
  9
$PROXYGRAPHICS
 70
     1
  9
$MEASUREMENT
 70
     1
  9
$CELWEIGHT
370
    -1
  9
$ENDCAPS
280
     0
  9
$JOINSTYLE
280
     0
  9
$LWDISPLAY
290
     1
  9
$INSUNITS
 70
     4
  9
$HYPERLINKBASE
  1

  9
$STYLESHEET
  1

  9
$XEDIT
290
     1
  9
$CEPSNTYPE
380
     0
  9
$PSTYLEMODE
290
     1
  9
$FINGERPRINTGUID
  2
{08d46826-619c-4e06-8772-e15853ade6e4}
  9
$VERSIONGUID
  2
{FAEB1C32-E019-11D5-929B-00C0DF256EC4}
  9
$EXTNAMES
290
     1
  9
$PSVPSCALE
 40
0.0
  9
$OLESTARTUP
290
     0
  0
ENDSEC
  0
SECTION
  2
CLASSES
  0
CLASS
  1
ACDBDICTIONARYWDFLT
  2
AcDbDictionaryWithDefault
  3
ObjectDBX Classes
 90
        0
280
     0
281
     0
  0
CLASS
  1
VISUALSTYLE
  2
AcDbVisualStyle
  3
ObjectDBX Classes
 90
     4095
280
     0
281
     0
  0
CLASS
  1
MATERIAL
  2
AcDbMaterial
  3
ObjectDBX Classes
 90
     1153
280
     0
281
     0
  0
CLASS
  1
SCALE
  2
AcDbScale
  3
ObjectDBX Classes
 90
     1153
280
     0
281
     0
  0
CLASS
  1
TABLESTYLE
  2
AcDbTableStyle
  3
ObjectDBX Classes
 90
     4095
280
     0
281
     0
  0
CLASS
  1
MLEADERSTYLE
  2
AcDbMLeaderStyle
  3
ACDB_MLEADERSTYLE_CLASS
 90
     4095
280
     0
281
     0
  0
CLASS
  1
SUN
  2
AcDbSun
  3
SCENEOE
 90
     1153
280
     0
281
     0
  0
CLASS
  1
ACDBPLACEHOLDER
  2
AcDbPlaceHolder
  3
ObjectDBX Classes
 90
        0
280
     0
281
     0
  0
CLASS
  1
LAYOUT
  2
AcDbLayout
  3
ObjectDBX Classes
 90
        0
280
     0
281
     0
  0
ENDSEC
  0
SECTION
  2
TABLES
  0
TABLE
  2
VPORT
  5
8
330
0
100
AcDbSymbolTable
 70
     1
  0
VPORT
  5
29
330
8
100
AcDbSymbolTableRecord
100
AcDbViewportTableRecord
  2
*Active
 70
     0
 10
0.0
 20
0.0
 11
1.0
 21
1.0
 12
139.7
 22
107.95
 13
0.0
 23
0.0
 14
10.0
 24
10.0
 15
10.0
 25
10.0
 16
0.0
 26
0.0
 36
1.0
 17
0.0
 27
0.0
 37
0.0
 40
215.9
 41
1.2941176471
 42
50.0
 43
0.0
 44
0.0
 50
0.0
 51
0.0
 71
     0
 72
  2000
 73
     1
 74
     3
 75
     0
 76
     0
 77
     0
 78
     0
281
     0
 65
     1
110
0.0
120
0.0
130
0.0
111
1.0
121
0.0
131
0.0
112
0.0
122
1.0
132
0.0
 79
     0
146
0.0
  0
ENDTAB
  0
TABLE
  2
LTYPE
  5
5
330
0
100
AcDbSymbolTable
 70
     6
  0
LTYPE
  5
14
330
5
100
AcDbSymbolTableRecord
100
AcDbLinetypeTableRecord
  2
ByBlock
 70
     0
  3

 72
    65
 73
     0
 40
0.0
  0
LTYPE
  5
15
330
5
100
AcDbSymbolTableRecord
100
AcDbLinetypeTableRecord
  2
ByLayer
 70
     0
  3

 72
    65
 73
     0
 40
0.0
  0
LTYPE
  5
16
330
5
100
AcDbSymbolTableRecord
100
AcDbLinetypeTableRecord
  2
Continuous
 70
     0
  3
Solid line
 72
    65
 73
     0
 40
0.0
  0
LTYPE
  5
6E
330
5
100
AcDbSymbolTableRecord
100
AcDbLinetypeTableRecord
  2
HIDDEN
 70
     0
  3
Hidden __ __ __ __ __ __ __ __ __ __ __ __ __ __
 72
    65
 73
     2
 40
1.905
 49
1.27
 74
     0
 49
-0.635
 74
     0
  0
LTYPE
  5
6F
330
5
100
AcDbSymbolTableRecord
100
AcDbLinetypeTableRecord
  2
PHANTOM
 70
     0
  3
Phantom ______  __  __  ______  __  __  ______
 72
    65
 73
     6
 40
12.7
 49
6.35
 74
     0
 49
-1.27
 74
     0
 49
1.27
 74
     0
 49
-1.27
 74
     0
 49
1.27
 74
     0
 49
-1.27
 74
     0
  0
LTYPE
  5
70
330
5
100
AcDbSymbolTableRecord
100
AcDbLinetypeTableRecord
  2
CENTER
 70
     0
  3
Center ____ _ ____ _ ____ _ ____ _ ____ _ ____
 72
    65
 73
     4
 40
10.16
 49
6.35
 74
     0
 49
-1.27
 74
     0
 49
1.27
 74
     0
 49
-1.27
 74
     0
  0
LTYPE
  5
71
330
5
100
AcDbSymbolTableRecord
100
AcDbLinetypeTableRecord
  2
CENTERX2
 70
     0
  3
Center (2x) ________  __  ________  __  _____
 72
    65
 73
     4
 40
20.32
 49
12.7
 74
     0
 49
-2.54
 74
     0
 49
2.54
 74
     0
 49
-2.54
 74
     0
  0
LTYPE
  5
72
330
5
100
AcDbSymbolTableRecord
100
AcDbLinetypeTableRecord
  2
DOT2
 70
     0
  3
Dot (.5x) ........................................
 72
    65
 73
     2
 40
0.635
 49
0.0
 74
     0
 49
-0.635
 74
     0
  0
ENDTAB
  0
TABLE
  2
LAYER
  5
2
330
0
100
AcDbSymbolTable
 70
    17
  0
LAYER
  5
10
330
2
100
AcDbSymbolTableRecord
100
AcDbLayerTableRecord
  2
0
 70
     0
 62
     7
  6
Continuous
370
    -3
390
F
  0
LAYER
  5
73
330
2
100
AcDbSymbolTableRecord
100
AcDbLayerTableRecord
  2
FORMAT
 70
     0
 62
     7
  6
Continuous
370
    -3
390
F
  0
LAYER
  5
74
330
2
100
AcDbSymbolTableRecord
100
AcDbLayerTableRecord
  2
YARDIMCI_GEOMETRI
 70
     0
 62
    -6
  6
Continuous
290
     0
370
    -3
390
F
  0
LAYER
  5
75
330
2
100
AcDbSymbolTableRecord
100
AcDbLayerTableRecord
  2
SAYFA_CERCEVESI
 70
     0
 62
     7
  6
Continuous
370
    25
390
F
  0
LAYER
  5
76
330
2
100
AcDbSymbolTableRecord
100
AcDbLayerTableRecord
  2
ANTET
 70
     0
 62
     7
  6
Continuous
370
    -3
390
F
  0
LAYER
  5
77
330
2
100
AcDbSymbolTableRecord
100
AcDbLayerTableRecord
  2
OLCU
 70
     0
 62
   150
  6
Continuous
370
    -3
390
F
  0
LAYER
  5
78
330
2
100
AcDbSymbolTableRecord
100
AcDbLayerTableRecord
  2
METIN
 70
     0
 62
    96
  6
Continuous
370
    -3
390
F
  0
LAYER
  5
79
330
2
100
AcDbSymbolTableRecord
100
AcDbLayerTableRecord
  2
BALON
 70
     0
 62
     5
  6
Continuous
370
    -3
390
F
  0
LAYER
  5
7A
330
2
100
AcDbSymbolTableRecord
100
AcDbLayerTableRecord
  2
VURGU
 70
     0
 62
     7
  6
Continuous
370
    -3
390
F
  0
LAYER
  5
7B
330
2
100
AcDbSymbolTableRecord
100
AcDbLayerTableRecord
  2
SILIK
 70
     0
 62
     7
  6
Continuous
370
    -3
390
F
  0
LAYER
  5
7C
330
2
100
AcDbSymbolTableRecord
100
AcDbLayerTableRecord
  2
MODEL
 70
     0
 62
     7
  6
Continuous
370
    -3
390
F
  0
LAYER
  5
7D
330
2
100
AcDbSymbolTableRecord
100
AcDbLayerTableRecord
  2
DETAYLANDıRMA
 70
     0
 62
   190
  6
Continuous
370
    -3
390
F
  0
LAYER
  5
7E
330
2
100
AcDbSymbolTableRecord
100
AcDbLayerTableRecord
  2
TOLERANS
 70
     0
 62
   230
  6
Continuous
370
    -3
390
F
  0
LAYER
  5
7F
330
2
100
AcDbSymbolTableRecord
100
AcDbLayerTableRecord
  2
MERKEZ_CIZGILERI
 70
     0
 62
    30
  6
Continuous
370
    -3
390
F
  0
LAYER
  5
80
330
2
100
AcDbSymbolTableRecord
100
AcDbLayerTableRecord
  2
KESIT-DETAY_CIZGILERI
 70
     0
 62
     7
  6
Continuous
370
    -3
390
F
  0
LAYER
  5
81
330
2
100
AcDbSymbolTableRecord
100
AcDbLayerTableRecord
  2
\U+041E\U+0421\U+0415\U+0412\U+042B\U+0415
 70
     0
 62
     7
  6
Continuous
370
    -3
390
F
  0
LAYER
  5
82
330
2
100
AcDbSymbolTableRecord
100
AcDbLayerTableRecord
  2
\U+0412\U+041E\U+0414\U+042F\U+041D\U+042B\U+0415_\U+0417\U+041D\U+0410\U+041A\U+0418
 70
     0
 62
    11
  6
Continuous
370
    -3
390
F
  0
ENDTAB
  0
TABLE
  2
STYLE
  5
3
330
0
100
AcDbSymbolTable
 70
     1
  0
STYLE
  5
11
330
3
100
AcDbSymbolTableRecord
100
AcDbTextStyleTableRecord
  2
Standard
 70
     0
 40
0.0
 41
1.0
 50
0.0
 71
     0
 42
3.5
  3
txt
  4

  0
ENDTAB
  0
TABLE
  2
VIEW
  5
6
330
0
100
AcDbSymbolTable
 70
     0
  0
ENDTAB
  0
TABLE
  2
UCS
  5
7
330
0
100
AcDbSymbolTable
 70
     0
  0
ENDTAB
  0
TABLE
  2
APPID
  5
9
330
0
100
AcDbSymbolTable
 70
     1
  0
APPID
  5
12
330
9
100
AcDbSymbolTableRecord
100
AcDbRegAppTableRecord
  2
ACAD
 70
     0
  0
ENDTAB
  0
TABLE
  2
DIMSTYLE
  5
A
330
0
100
AcDbSymbolTable
 70
     1
100
AcDbDimStyleTable
  0
DIMSTYLE
105
27
330
A
100
AcDbSymbolTableRecord
100
AcDbDimStyleTableRecord
  2
ISO-25
 70
     0
 41
2.5
 42
0.625
 43
3.75
 44
1.25
 73
     0
 74
     0
 77
     1
 78
     8
140
2.5
141
2.5
143
0.0393700787
147
0.625
171
     3
172
     1
178
     0
271
     2
272
     2
274
     3
278
    44
283
     0
284
     8
340
11
  0
ENDTAB
  0
TABLE
  2
BLOCK_RECORD
  5
1
330
0
100
AcDbSymbolTable
 70
     4
  0
BLOCK_RECORD
  5
1F
330
1
100
AcDbSymbolTableRecord
100
AcDbBlockTableRecord
  2
*Model_Space
340
22
  0
BLOCK_RECORD
  5
1B
330
1
100
AcDbSymbolTableRecord
100
AcDbBlockTableRecord
  2
*Paper_Space
340
1E
  0
BLOCK_RECORD
  5
23
330
1
100
AcDbSymbolTableRecord
100
AcDbBlockTableRecord
  2
*Paper_Space0
340
26
  0
BLOCK_RECORD
  5
8C
330
1
100
AcDbSymbolTableRecord
100
AcDbBlockTableRecord
  2
SW_CENTERMARKSYMBOL_0
340
0
102
{BLKREFS
331
97
102
}
  0
BLOCK_RECORD
  5
DE
330
1
100
AcDbSymbolTableRecord
100
AcDbBlockTableRecord
  2
SW_CENTERMARKSYMBOL_1
340
0
102
{BLKREFS
331
E9
102
}
  0
BLOCK_RECORD
  5
EA
330
1
100
AcDbSymbolTableRecord
100
AcDbBlockTableRecord
  2
SW_CENTERMARKSYMBOL_2
340
0
102
{BLKREFS
331
F5
102
}
  0
ENDTAB
  0
ENDSEC
  0
SECTION
  2
BLOCKS
  0
BLOCK
  5
20
330
1F
100
AcDbEntity
  8
0
100
AcDbBlockBegin
  2
*Model_Space
 70
     0
 10
0.0
 20
0.0
 30
0.0
  3
*Model_Space
  1

  0
ENDBLK
  5
21
330
1F
100
AcDbEntity
  8
0
100
AcDbBlockEnd
  0
BLOCK
  5
1C
330
1B
100
AcDbEntity
 67
     1
  8
0
100
AcDbBlockBegin
  2
*Paper_Space
 70
     0
 10
0.0
 20
0.0
 30
0.0
  3
*Paper_Space
  1

  0
ENDBLK
  5
1D
330
1B
100
AcDbEntity
 67
     1
  8
0
100
AcDbBlockEnd
  0
BLOCK
  5
24
330
23
100
AcDbEntity
  8
0
100
AcDbBlockBegin
  2
*Paper_Space0
 70
     0
 10
0.0
 20
0.0
 30
0.0
  3
*Paper_Space0
  1

  0
ENDBLK
  5
25
330
23
100
AcDbEntity
  8
0
100
AcDbBlockEnd
  0
BLOCK
  5
8D
330
8C
100
AcDbEntity
  8
0
100
AcDbBlockBegin
  2
SW_CENTERMARKSYMBOL_0
 70
     0
 10
0.0
 20
0.0
 30
0.0
  3
SW_CENTERMARKSYMBOL_0
  1

  0
LINE
  5
8F
330
8C
100
AcDbEntity
  8
FORMAT
 62
     0
100
AcDbLine
 10
0.0
 20
0.0
 30
0.0
 11
0.0
 21
2.5
 31
0.0
  0
LINE
  5
90
330
8C
100
AcDbEntity
  8
FORMAT
 62
     0
100
AcDbLine
 10
0.0
 20
0.0
 30
0.0
 11
-2.5
 21
0.0
 31
0.0
  0
LINE
  5
91
330
8C
100
AcDbEntity
  8
FORMAT
 62
     0
100
AcDbLine
 10
0.0
 20
0.0
 30
0.0
 11
0.0
 21
-2.5
 31
0.0
  0
LINE
  5
92
330
8C
100
AcDbEntity
  8
FORMAT
 62
     0
100
AcDbLine
 10
0.0
 20
0.0
 30
0.0
 11
2.5
 21
0.0
 31
0.0
  0
LINE
  5
93
330
8C
100
AcDbEntity
  8
FORMAT
 62
     0
100
AcDbLine
 10
0.0
 20
5.0
 30
0.0
 11
0.0
 21
93.3
 31
0.0
  0
LINE
  5
94
330
8C
100
AcDbEntity
  8
FORMAT
 62
     0
100
AcDbLine
 10
-5.0
 20
0.0
 30
0.0
 11
-93.3
 21
0.0
 31
0.0
  0
LINE
  5
95
330
8C
100
AcDbEntity
  8
FORMAT
 62
     0
100
AcDbLine
 10
0.0
 20
-5.0
 30
0.0
 11
0.0
 21
-93.3
 31
0.0
  0
LINE
  5
96
330
8C
100
AcDbEntity
  8
FORMAT
 62
     0
100
AcDbLine
 10
5.0
 20
0.0
 30
0.0
 11
93.3
 21
0.0
 31
0.0
  0
ENDBLK
  5
8E
330
8C
100
AcDbEntity
  8
0
100
AcDbBlockEnd
  0
BLOCK
  5
DF
330
DE
100
AcDbEntity
  8
0
100
AcDbBlockBegin
  2
SW_CENTERMARKSYMBOL_1
 70
     0
 10
0.0
 20
0.0
 30
0.0
  3
SW_CENTERMARKSYMBOL_1
  1

  0
LINE
  5
E1
330
DE
100
AcDbEntity
  8
FORMAT
 62
     0
100
AcDbLine
 10
0.0
 20
0.0
 30
0.0
 11
0.0
 21
2.5
 31
0.0
  0
LINE
  5
E2
330
DE
100
AcDbEntity
  8
FORMAT
 62
     0
100
AcDbLine
 10
0.0
 20
0.0
 30
0.0
 11
-2.5
 21
0.0
 31
0.0
  0
LINE
  5
E3
330
DE
100
AcDbEntity
  8
FORMAT
 62
     0
100
AcDbLine
 10
0.0
 20
0.0
 30
0.0
 11
0.0
 21
-2.5
 31
0.0
  0
LINE
  5
E4
330
DE
100
AcDbEntity
  8
FORMAT
 62
     0
100
AcDbLine
 10
0.0
 20
0.0
 30
0.0
 11
2.5
 21
0.0
 31
0.0
  0
LINE
  5
E5
330
DE
100
AcDbEntity
  8
FORMAT
 62
     0
100
AcDbLine
 10
0.0
 20
5.0
 30
0.0
 11
0.0
 21
9.5
 31
0.0
  0
LINE
  5
E6
330
DE
100
AcDbEntity
  8
FORMAT
 62
     0
100
AcDbLine
 10
-5.0
 20
0.0
 30
0.0
 11
-9.5
 21
0.0
 31
0.0
  0
LINE
  5
E7
330
DE
100
AcDbEntity
  8
FORMAT
 62
     0
100
AcDbLine
 10
0.0
 20
-5.0
 30
0.0
 11
0.0
 21
-9.5
 31
0.0
  0
LINE
  5
E8
330
DE
100
AcDbEntity
  8
FORMAT
 62
     0
100
AcDbLine
 10
5.0
 20
0.0
 30
0.0
 11
9.5
 21
0.0
 31
0.0
  0
ENDBLK
  5
E0
330
DE
100
AcDbEntity
  8
0
100
AcDbBlockEnd
  0
BLOCK
  5
EB
330
EA
100
AcDbEntity
  8
0
100
AcDbBlockBegin
  2
SW_CENTERMARKSYMBOL_2
 70
     0
 10
0.0
 20
0.0
 30
0.0
  3
SW_CENTERMARKSYMBOL_2
  1

  0
LINE
  5
ED
330
EA
100
AcDbEntity
  8
FORMAT
 62
     0
100
AcDbLine
 10
0.0
 20
0.0
 30
0.0
 11
0.0
 21
2.5
 31
0.0
  0
LINE
  5
EE
330
EA
100
AcDbEntity
  8
FORMAT
 62
     0
100
AcDbLine
 10
0.0
 20
0.0
 30
0.0
 11
-2.5
 21
0.0
 31
0.0
  0
LINE
  5
EF
330
EA
100
AcDbEntity
  8
FORMAT
 62
     0
100
AcDbLine
 10
0.0
 20
0.0
 30
0.0
 11
0.0
 21
-2.5
 31
0.0
  0
LINE
  5
F0
330
EA
100
AcDbEntity
  8
FORMAT
 62
     0
100
AcDbLine
 10
0.0
 20
0.0
 30
0.0
 11
2.5
 21
0.0
 31
0.0
  0
LINE
  5
F1
330
EA
100
AcDbEntity
  8
FORMAT
 62
     0
100
AcDbLine
 10
0.0
 20
5.0
 30
0.0
 11
0.0
 21
9.5
 31
0.0
  0
LINE
  5
F2
330
EA
100
AcDbEntity
  8
FORMAT
 62
     0
100
AcDbLine
 10
-5.0
 20
0.0
 30
0.0
 11
-9.5
 21
0.0
 31
0.0
  0
LINE
  5
F3
330
EA
100
AcDbEntity
  8
FORMAT
 62
     0
100
AcDbLine
 10
0.0
 20
-5.0
 30
0.0
 11
0.0
 21
-9.5
 31
0.0
  0
LINE
  5
F4
330
EA
100
AcDbEntity
  8
FORMAT
 62
     0
100
AcDbLine
 10
5.0
 20
0.0
 30
0.0
 11
9.5
 21
0.0
 31
0.0
  0
ENDBLK
  5
EC
330
EA
100
AcDbEntity
  8
0
100
AcDbBlockEnd
  0
ENDSEC
  0
SECTION
  2
ENTITIES
  0
LINE
  5
83
330
1F
100
AcDbEntity
  8
0
  6
Continuous
 62
     7
370
    25
100
AcDbLine
 10
152.3656050619
 20
213.9917037153
 30
0.0
 11
152.3656050619
 21
224.2839610669
 31
0.0
  0
LINE
  5
84
330
1F
100
AcDbEntity
  8
0
  6
Continuous
 62
     7
370
    25
100
AcDbLine
 10
138.3656050619
 20
224.2839610669
 30
0.0
 11
138.3656050619
 21
213.9928798311
 31
0.0
  0
CIRCLE
  5
85
330
1F
100
AcDbEntity
  8
0
  6
Continuous
 62
     7
370
    25
100
AcDbCircle
 10
145.3656050619
 20
105.7339610669
 30
0.0
 40
108.2
  0
ARC
  5
86
330
1F
100
AcDbEntity
  8
0
  6
Continuous
 62
     7
370
    25
100
AcDbCircle
 10
145.3656050619
 20
105.7339610669
 30
0.0
 40
109.2
100
AcDbArc
 50
93.6753263868
 51
180.0
  0
ARC
  5
87
330
1F
100
AcDbEntity
  8
0
  6
Continuous
 62
     7
370
    25
100
AcDbCircle
 10
145.3656050619
 20
105.7339610669
 30
0.0
 40
109.2
100
AcDbArc
 50
180.0
 51
86.3246736132
  0
SPLINE
  5
88
330
1F
100
AcDbEntity
  8
0
  6
Continuous
 62
     7
370
    25
100
AcDbSpline
210
0.0
220
0.0
230
1.0
 70
     8
 71
     3
 72
    14
 73
    10
 74
     0
 42
0.00000001
 43
0.00000001
 40
0.0
 40
0.0
 40
0.0
 40
0.0
 40
0.1560306373271816
 40
0.3120649037283384
 40
0.4680175111806224
 40
0.6240121436692692
 40
0.7801180408742845
 40
0.9361449914137416
 40
1.0
 40
1.0
 40
1.0
 40
1.0
 10
149.2650187520495
 20
214.0133741531627
 30
0.0
 10
148.5685379429904
 20
214.0261951822909
 30
0.0
 10
147.1755601256154
 20
214.0518375387481
 30
0.0
 10
144.7636209240844
 20
214.0603339797886
 30
0.0
 10
142.4548278336305
 20
214.0356667236625
 30
0.0
 10
140.4525438738639
 20
213.9913995007102
 30
0.0
 10
139.0532068782391
 20
213.9597612812363
 30
0.0
 10
138.3574029046235
 20
213.9559037922011
 30
0.0
 10
138.4379565784842
 20
213.9845583730114
 30
0.0
 10
138.4613498371057
 20
213.9928798310835
 30
0.0
  0
SPLINE
  5
89
330
1F
100
AcDbEntity
  8
0
  6
Continuous
 62
     7
370
    25
100
AcDbSpline
210
0.0
220
0.0
230
1.0
 70
     8
 71
     3
 72
    11
 73
     7
 74
     0
 42
0.00000001
 43
0.00000001
 40
0.0
 40
0.0
 40
0.0
 40
0.0
 40
0.0926852716464614
 40
0.4364683903652553
 40
0.7800129614054021
 40
1.0
 40
1.0
 40
1.0
 40
1.0
 10
152.2874286322008
 20
213.9917037153445
 30
0.0
 10
152.310542167443
 20
213.9857771336416
 30
0.0
 10
152.4193871580614
 20
213.9578680006125
 30
0.0
 10
151.8130171965884
 20
213.9579497250077
 30
0.0
 10
150.6903840467359
 20
213.9819865641818
 30
0.0
 10
149.6652158511258
 20
214.0045615195845
 30
0.0
 10
149.2650187520495
 20
214.0133741531627
 30
0.0
  0
CIRCLE
  5
8A
330
1F
100
AcDbEntity
  8
0
  6
Continuous
 62
     7
370
    25
100
AcDbCircle
 10
145.3656050619
 20
105.7339610669
 30
0.0
 40
90.8
  0
LINE
  5
8B
330
1F
100
AcDbEntity
  8
0
  6
Continuous
 62
     7
370
    25
100
AcDbLine
 10
152.3656050619
 20
224.2839610669
 30
0.0
 11
138.3656050619
 21
224.2839610669
 31
0.0
  0
INSERT
  5
97
330
1F
100
AcDbEntity
  8
FORMAT
 62
     7
100
AcDbBlockReference
  2
SW_CENTERMARKSYMBOL_0
 10
145.3656050619
 20
105.7339610669
 30
0.0
  0
ARC
  5
98
330
1F
100
AcDbEntity
  8
0
  6
Continuous
 62
     7
370
    25
100
AcDbCircle
 10
435.7852372114
 20
-2945.6910389331
 30
0.0
 40
3160.625000000009
100
AcDbArc
 50
91.3500444087
 51
91.441327245
  0
ARC
  5
99
330
1F
100
AcDbEntity
  8
0
  6
Continuous
 62
     7
370
    25
100
AcDbCircle
 10
435.7852372114
 20
-2945.6910389331
 30
0.0
 40
3160.625000000009
100
AcDbArc
 50
90.0
 51
91.0980813484
  0
ARC
  5
9A
330
1F
100
AcDbEntity
  8
0
  6
Continuous
 62
     7
370
    25
100
AcDbCircle
 10
435.7852372114
 20
3157.1589610669
 30
0.0
 40
3160.625000000009
100
AcDbArc
 50
268.558672755
 51
270.0
  0
LINE
  5
9B
330
1F
100
AcDbEntity
  8
0
  6
Continuous
 62
     7
370
    25
100
AcDbLine
 10
435.7852372114
 20
-3.4660389331
 30
0.0
 11
460.7852372114
 21
-3.4660389331
 31
0.0
  0
LINE
  5
9C
330
1F
100
AcDbEntity
  8
0
  6
Continuous
 62
     7
370
    25
100
AcDbLine
 10
460.7852372114
 20
214.9339610669
 30
0.0
 11
435.7852372114
 21
214.9339610669
 31
0.0
  0
ARC
  5
9D
330
1F
100
AcDbEntity
  8
0
  6
Continuous
 62
     7
370
    25
100
AcDbCircle
 10
460.7852372114
 20
-2945.6910389331
 30
0.0
 40
3160.625000000009
100
AcDbArc
 50
88.9027295083
 51
90.0
  0
ARC
  5
9E
330
1F
100
AcDbEntity
  8
0
  6
Continuous
 62
     7
370
    25
100
AcDbCircle
 10
460.7852372114
 20
-2945.6910389331
 30
0.0
 40
3160.625000000009
100
AcDbArc
 50
88.558672755
 51
88.6506867844
  0
ARC
  5
9F
330
1F
100
AcDbEntity
  8
0
  6
Continuous
 62
     7
370
    25
100
AcDbCircle
 10
460.7852372114
 20
3157.1589610669
 30
0.0
 40
3160.625000000009
100
AcDbArc
 50
270.0
 51
271.441327245
  0
LINE
  5
A0
330
1F
100
AcDbEntity
  8
0
  6
Continuous
 62
     7
370
    25
100
AcDbLine
 10
375.2852372114
 20
214.3491292649
 30
0.0
 11
375.2852372114
 21
224.2839610669
 31
0.0
  0
LINE
  5
A1
330
1F
100
AcDbEntity
  8
0
  6
Continuous
 62
     7
370
    25
100
AcDbLine
 10
361.2852372114
 20
224.2839610669
 30
0.0
 11
361.2852372114
 21
214.0544904849
 31
0.0
  0
LINE
  5
A2
330
1F
100
AcDbEntity
  8
0
  6
Continuous
 62
     7
370
    25
100
AcDbLine
 10
535.2852372114
 20
214.0528365811
 30
0.0
 11
535.2852372114
 21
224.2839610669
 31
0.0
  0
LINE
  5
A3
330
1F
100
AcDbEntity
  8
0
  6
Continuous
 62
     7
370
    25
100
AcDbLine
 10
521.2852372114
 20
224.2839610669
 30
0.0
 11
521.2852372114
 21
214.3528278448
 31
0.0
  0
LINE
  5
A4
330
1F
100
AcDbEntity
  8
0
  6
Continuous
 62
     7
370
    25
100
AcDbLine
 10
356.2852372114
 20
105.7339610669
 30
0.0
 11
356.2852372114
 21
213.9339610669
 31
0.0
  0
LINE
  5
A5
330
1F
100
AcDbEntity
  8
0
  6
Continuous
 62
     7
370
    25
100
AcDbLine
 10
356.2852372114
 20
-2.4660389331
 30
0.0
 11
356.2852372114
 21
105.7339610669
 31
0.0
  0
SPLINE
  5
A6
330
1F
100
AcDbEntity
  8
0
  6
Continuous
 62
     7
370
    25
100
AcDbSpline
210
0.0
220
0.0
230
1.0
 70
     8
 71
     3
 72
    18
 73
    14
 74
     0
 42
0.00000001
 43
0.00000001
 40
0.0
 40
0.0
 40
0.0
 40
0.0
 40
0.0246072299548717
 40
0.1315757336548743
 40
0.2386233196182157
 40
0.3459964549725562
 40
0.4535333315084587
 40
0.5609072664816082
 40
0.6680600120504494
 40
0.7752129974017825
 40
0.8825061303129783
 40
0.9898360793458146
 40
0.9999999999999999
 40
0.9999999999999999
 40
0.9999999999999999
 40
0.9999999999999999
 10
375.215282959128
 20
214.3490793131728
 30
0.0
 10
375.2367677058959
 20
214.3508564987955
 30
0.0
 10
375.351647410908
 20
214.3603591735206
 30
0.0
 10
374.7776143235596
 20
214.3122109469217
 30
0.0
 10
373.5178541274379
 20
214.2172355988651
 30
0.0
 10
371.603425463275
 20
214.1003283422846
 30
0.0
 10
369.3294891688242
 20
214.0058134974878
 30
0.0
 10
366.9316319935222
 20
213.9579483480399
 30
0.0
 10
364.6959498759463
 20
213.9611931182292
 30
0.0
 10
362.8427374677577
 20
213.9993347681544
 30
0.0
 10
361.6825475670848
 20
214.0391278793583
 30
0.0
 10
361.17941945774
 20
214.0600085193094
 30
0.0
 10
361.3080087631211
 20
214.0549035487466
 30
0.0
 10
361.3191325051542
 20
214.0544619383385
 30
0.0
  0
LINE
  5
A7
330
1F
100
AcDbEntity
  8
0
  6
Continuous
 62
     7
370
    25
100
AcDbLine
 10
540.2852372114
 20
105.7339610669
 30
0.0
 11
540.2852372114
 21
213.9339610669
 31
0.0
  0
LINE
  5
A8
330
1F
100
AcDbEntity
  8
0
  6
Continuous
 62
     7
370
    25
100
AcDbLine
 10
540.2852372114
 20
-2.4660389331
 30
0.0
 11
540.2852372114
 21
105.7339610669
 31
0.0
  0
SPLINE
  5
A9
330
1F
100
AcDbEntity
  8
0
  6
Continuous
 62
     7
370
    25
100
AcDbSpline
210
0.0
220
0.0
230
1.0
 70
     8
 71
     3
 72
    18
 73
    14
 74
     0
 42
0.00000001
 43
0.00000001
 40
0.0
 40
0.0
 40
0.0
 40
0.0
 40
0.0268462347379493
 40
0.1340764937220688
 40
0.2413356483790894
 40
0.3486713066903092
 40
0.4559526826683763
 40
0.5630955251699932
 40
0.6702640762260762
 40
0.7776650870723428
 40
0.885203190595724
 40
0.9925452540025049
 40
1.0
 40
1.0
 40
1.0
 40
1.0
 10
535.2108429250169
 20
214.0528129990397
 30
0.0
 10
535.2333444649514
 20
214.0537179698413
 30
0.0
 10
535.3457225174876
 20
214.0582376096788
 30
0.0
 10
534.7570421506911
 20
214.0339354319914
 30
0.0
 10
533.4764730424575
 20
213.9923212023339
 30
0.0
 10
531.5480015730989
 20
213.9578063047241
 30
0.0
 10
529.2694410568823
 20
213.9618503979233
 30
0.0
 10
526.8760226301955
 20
214.0178392260296
 30
0.0
 10
524.6489771540779
 20
214.1173724129906
 30
0.0
 10
522.8057441529058
 20
214.2347167426064
 30
0.0
 10
521.6638426718796
 20
214.3228436742509
 30
0.0
 10
521.1727086481682
 20
214.3641137773789
 30
0.0
 10
521.3022993213383
 20
214.3534666121997
 30
0.0
 10
521.3107147603836
 20
214.3527752000218
 30
0.0
  0
LINE
  5
AA
330
1F
100
AcDbEntity
  8
0
  6
Continuous
 62
     7
370
    25
100
AcDbLine
 10
375.2852372114
 20
224.2839610669
 30
0.0
 11
361.2852372114
 21
224.2839610669
 31
0.0
  0
LINE
  5
AB
330
1F
100
AcDbEntity
  8
0
  6
Continuous
 62
     7
370
    25
100
AcDbLine
 10
535.2852372114
 20
224.2839610669
 30
0.0
 11
521.2852372114
 21
224.2839610669
 31
0.0
  0
LINE
  5
AC
330
1F
100
AcDbEntity
  8
0
  6
Continuous
 62
     1
370
    25
100
AcDbLine
 10
435.7852372114
 20
105.7339610669
 30
0.0
 11
435.7852372114
 21
214.9339610669
 31
0.0
  0
LINE
  5
AD
330
1F
100
AcDbEntity
  8
0
  6
Continuous
 62
     1
370
    25
100
AcDbLine
 10
435.7852372114
 20
-3.4660389331
 30
0.0
 11
435.7852372114
 21
105.7339610669
 31
0.0
  0
LINE
  5
AE
330
1F
100
AcDbEntity
  8
0
  6
Continuous
 62
     1
370
    25
100
AcDbLine
 10
460.7852372114
 20
105.7339610669
 30
0.0
 11
460.7852372114
 21
214.9339610669
 31
0.0
  0
LINE
  5
AF
330
1F
100
AcDbEntity
  8
0
  6
Continuous
 62
     1
370
    25
100
AcDbLine
 10
460.7852372114
 20
-3.4660389331
 30
0.0
 11
460.7852372114
 21
105.7339610669
 31
0.0
  0
ARC
  5
B0
330
1F
100
AcDbEntity
  8
0
  6
Continuous
 62
     7
370
    25
100
AcDbCircle
 10
3196.7906050619
 20
398.4981192623
 30
0.0
 40
3160.625000000009
100
AcDbArc
 50
180.0
 51
181.441327245
  0
ARC
  5
B1
330
1F
100
AcDbEntity
  8
0
  6
Continuous
 62
     7
370
    25
100
AcDbCircle
 10
-2906.0593949381
 20
398.4981192623
 30
0.0
 40
3160.625000000009
100
AcDbArc
 50
358.558672755
 51
0.0
  0
LINE
  5
B2
330
1F
100
AcDbEntity
  8
0
  6
Continuous
 62
     7
370
    25
100
AcDbLine
 10
254.5656050619
 20
398.4981192623
 30
0.0
 11
254.5656050619
 21
423.4981192623
 31
0.0
  0
LINE
  5
B3
330
1F
100
AcDbEntity
  8
0
  6
Continuous
 62
     7
370
    25
100
AcDbLine
 10
36.1656050619
 20
423.4981192623
 30
0.0
 11
36.1656050619
 21
398.4981192623
 31
0.0
  0
ARC
  5
B4
330
1F
100
AcDbEntity
  8
0
  6
Continuous
 62
     7
370
    25
100
AcDbCircle
 10
3196.7906050619
 20
423.4981192623
 30
0.0
 40
3160.625000000009
100
AcDbArc
 50
178.558672755
 51
180.0
  0
ARC
  5
B5
330
1F
100
AcDbEntity
  8
0
  6
Continuous
 62
     7
370
    25
100
AcDbCircle
 10
-2906.0593949381
 20
423.4981192623
 30
0.0
 40
3160.625000000009
100
AcDbArc
 50
0.0
 51
1.441327245
  0
LINE
  5
B6
330
1F
100
AcDbEntity
  8
0
  6
Continuous
 62
     7
370
    25
100
AcDbLine
 10
253.5656050619
 20
318.9981192623
 30
0.0
 11
37.1656050619
 21
318.9981192623
 31
0.0
  0
LINE
  5
B7
330
1F
100
AcDbEntity
  8
0
  6
Continuous
 62
     7
370
    25
100
AcDbLine
 10
253.5656050619
 20
502.9981192623
 30
0.0
 11
37.1656050619
 21
502.9981192623
 31
0.0
  0
LINE
  5
B8
330
1F
100
AcDbEntity
  8
0
  6
Continuous
 62
     1
370
    25
100
AcDbLine
 10
254.5656050619
 20
398.4981192623
 30
0.0
 11
36.1656050619
 21
398.4981192623
 31
0.0
  0
LINE
  5
B9
330
1F
100
AcDbEntity
  8
0
  6
Continuous
 62
     1
370
    25
100
AcDbLine
 10
254.5656050619
 20
423.4981192623
 30
0.0
 11
36.1656050619
 21
423.4981192623
 31
0.0
  0
ARC
  5
BA
330
1F
100
AcDbEntity
  8
0
  6
Continuous
 62
     7
370
    25
100
AcDbCircle
 10
-196.2520504829
 20
3157.1589610669
 30
0.0
 40
3160.625000000009
100
AcDbArc
 50
270.0
 51
271.441327245
  0
ARC
  5
BB
330
1F
100
AcDbEntity
  8
0
  6
Continuous
 62
     7
370
    25
100
AcDbCircle
 10
-196.2520504829
 20
-2945.6910389331
 30
0.0
 40
3160.625000000009
100
AcDbArc
 50
88.9019214312
 51
90.0
  0
ARC
  5
BC
330
1F
100
AcDbEntity
  8
0
  6
Continuous
 62
     7
370
    25
100
AcDbCircle
 10
-196.2520504829
 20
-2945.6910389331
 30
0.0
 40
3160.625000000009
100
AcDbArc
 50
88.558672755
 51
88.649954595
  0
LINE
  5
BD
330
1F
100
AcDbEntity
  8
0
  6
Continuous
 62
     7
370
    25
100
AcDbLine
 10
-196.2520504829
 20
214.9339610669
 30
0.0
 11
-221.2520504829
 21
214.9339610669
 31
0.0
  0
LINE
  5
BE
330
1F
100
AcDbEntity
  8
0
  6
Continuous
 62
     7
370
    25
100
AcDbLine
 10
-221.2520504829
 20
-3.4660389331
 30
0.0
 11
-196.2520504829
 21
-3.4660389331
 31
0.0
  0
ARC
  5
BF
330
1F
100
AcDbEntity
  8
0
  6
Continuous
 62
     7
370
    25
100
AcDbCircle
 10
-221.2520504829
 20
3157.1589610669
 30
0.0
 40
3160.625000000009
100
AcDbArc
 50
268.558672755
 51
270.0
  0
ARC
  5
C0
330
1F
100
AcDbEntity
  8
0
  6
Continuous
 62
     7
370
    25
100
AcDbCircle
 10
-221.2520504829
 20
-2945.6910389331
 30
0.0
 40
3160.625000000009
100
AcDbArc
 50
91.3493118437
 51
91.441327245
  0
ARC
  5
C1
330
1F
100
AcDbEntity
  8
0
  6
Continuous
 62
     7
370
    25
100
AcDbCircle
 10
-221.2520504829
 20
-2945.6910389331
 30
0.0
 40
3160.625000000009
100
AcDbArc
 50
90.0
 51
91.097273297
  0
LINE
  5
C2
330
1F
100
AcDbEntity
  8
0
  6
Continuous
 62
     7
370
    25
100
AcDbLine
 10
-121.7520504829
 20
214.0544904849
 30
0.0
 11
-121.7520504829
 21
224.2839610669
 31
0.0
  0
LINE
  5
C3
330
1F
100
AcDbEntity
  8
0
  6
Continuous
 62
     7
370
    25
100
AcDbLine
 10
-135.7520504829
 20
224.2839610669
 30
0.0
 11
-135.7520504829
 21
214.3491292649
 31
0.0
  0
LINE
  5
C4
330
1F
100
AcDbEntity
  8
0
  6
Continuous
 62
     7
370
    25
100
AcDbLine
 10
-281.7520504829
 20
214.3528278448
 30
0.0
 11
-281.7520504829
 21
224.2839610669
 31
0.0
  0
LINE
  5
C5
330
1F
100
AcDbEntity
  8
0
  6
Continuous
 62
     7
370
    25
100
AcDbLine
 10
-295.7520504829
 20
224.2839610669
 30
0.0
 11
-295.7520504829
 21
214.0528365811
 31
0.0
  0
LINE
  5
C6
330
1F
100
AcDbEntity
  8
0
  6
Continuous
 62
     7
370
    25
100
AcDbLine
 10
-116.7520504829
 20
213.9339610669
 30
0.0
 11
-116.7520504829
 21
-2.4660389331
 31
0.0
  0
SPLINE
  5
C7
330
1F
100
AcDbEntity
  8
0
  6
Continuous
 62
     7
370
    25
100
AcDbSpline
210
0.0
220
0.0
230
1.0
 70
     8
 71
     3
 72
     9
 73
     5
 74
     0
 42
0.00000001
 43
0.00000001
 40
0.0
 40
0.0
 40
0.0
 40
0.0
 40
0.5648701408544174
 40
1.0
 40
1.0
 40
1.0
 40
1.0
 10
-134.5418391110663
 20
214.260179239686
 30
0.0
 10
-134.9382443331733
 20
214.2906758844672
 30
0.0
 10
-135.6400077889427
 20
214.3446646556474
 30
0.0
 10
-135.6693187363012
 20
214.3477394476815
 30
0.0
 10
-135.6820728046966
 20
214.3490773815062
 30
0.0
  0
SPLINE
  5
C8
330
1F
100
AcDbEntity
  8
0
  6
Continuous
 62
     7
370
    25
100
AcDbSpline
210
0.0
220
0.0
230
1.0
 70
     8
 71
     3
 72
    15
 73
    11
 74
     0
 42
0.00000001
 43
0.00000001
 40
0.0
 40
0.0
 40
0.0
 40
0.0
 40
0.1198753986232695
 40
0.2523085472818734
 40
0.384842800892943
 40
0.5173791208663988
 40
0.6497493187315987
 40
0.7820527456365154
 40
0.9145817855008049
 40
1.0
 40
1.0
 40
1.0
 40
1.0
 10
-121.7860045698884
 20
214.054459611105
 30
0.0
 10
-121.8358707282436
 20
214.0523047283162
 30
0.0
 10
-121.9408268586726
 20
214.047769224349
 30
0.0
 10
-123.0544234111094
 20
214.0067776099502
 30
0.0
 10
-124.7762744547127
 20
213.9666415459432
 30
0.0
 10
-126.9644485021401
 20
213.9548810099287
 30
0.0
 10
-129.3499866576257
 20
213.9929455258092
 30
0.0
 10
-131.6577796344495
 20
214.0797126646091
 30
0.0
 10
-133.4377197353613
 20
214.1819190905368
 30
0.0
 10
-134.2309536763454
 20
214.2381436328259
 30
0.0
 10
-134.5418391110663
 20
214.260179239686
 30
0.0
  0
LINE
  5
C9
330
1F
100
AcDbEntity
  8
0
  6
Continuous
 62
     7
370
    25
100
AcDbLine
 10
-300.7520504829
 20
213.9339610669
 30
0.0
 11
-300.7520504829
 21
-2.4660389331
 31
0.0
  0
SPLINE
  5
CA
330
1F
100
AcDbEntity
  8
0
  6
Continuous
 62
     7
370
    25
100
AcDbSpline
210
0.0
220
0.0
230
1.0
 70
     8
 71
     3
 72
     9
 73
     5
 74
     0
 42
0.00000001
 43
0.00000001
 40
0.0
 40
0.0
 40
0.0
 40
0.0
 40
0.571460617100962
 40
0.9999999999999999
 40
0.9999999999999999
 40
0.9999999999999999
 40
0.9999999999999999
 10
-294.5653604585007
 20
214.0133741531627
 30
0.0
 10
-294.9590140237469
 20
214.0269598172022
 30
0.0
 10
-295.6478691319838
 20
214.0507333960506
 30
0.0
 10
-295.6687364582174
 20
214.052189786353
 30
0.0
 10
-295.6776789293244
 20
214.0528139069545
 30
0.0
  0
SPLINE
  5
CB
330
1F
100
AcDbEntity
  8
0
  6
Continuous
 62
     7
370
    25
100
AcDbSpline
210
0.0
220
0.0
230
1.0
 70
     8
 71
     3
 72
    15
 73
    11
 74
     0
 42
0.00000001
 43
0.00000001
 40
0.0
 40
0.0
 40
0.0
 40
0.0
 40
0.122680521451511
 40
0.2544758654001785
 40
0.386629867744713
 40
0.5190912644425428
 40
0.6514556417341759
 40
0.7835197014832155
 40
0.915492123297841
 40
1.0
 40
1.0
 40
1.0
 40
1.0
 10
-281.7774707357434
 20
214.3527799026172
 30
0.0
 10
-281.8340126051793
 20
214.347939181727
 30
0.0
 10
-281.9512972481351
 20
214.3378980878099
 30
0.0
 10
-283.0842333358931
 20
214.2482044609462
 30
0.0
 10
-284.8153191040888
 20
214.1345081699988
 30
0.0
 10
-287.0102830822015
 20
214.0296663179037
 30
0.0
 10
-289.400887336036
 20
213.9665119233928
 30
0.0
 10
-291.7069566219037
 20
213.9556074016774
 30
0.0
 10
-293.4755115752699
 20
213.9823340279397
 30
0.0
 10
-294.2593656632531
 20
214.004659076322
 30
0.0
 10
-294.5653604585007
 20
214.0133741531627
 30
0.0
  0
LINE
  5
CC
330
1F
100
AcDbEntity
  8
0
  6
Continuous
 62
     7
370
    25
100
AcDbLine
 10
-121.7520504829
 20
224.2839610669
 30
0.0
 11
-135.7520504829
 21
224.2839610669
 31
0.0
  0
LINE
  5
CD
330
1F
100
AcDbEntity
  8
0
  6
Continuous
 62
     7
370
    25
100
AcDbLine
 10
-281.7520504829
 20
224.2839610669
 30
0.0
 11
-295.7520504829
 21
224.2839610669
 31
0.0
  0
LINE
  5
CE
330
1F
100
AcDbEntity
  8
0
  6
Continuous
 62
     1
370
    25
100
AcDbLine
 10
-196.2520504829
 20
214.9339610669
 30
0.0
 11
-196.2520504829
 21
-3.4660389331
 31
0.0
  0
LINE
  5
CF
330
1F
100
AcDbEntity
  8
0
  6
Continuous
 62
     1
370
    25
100
AcDbLine
 10
-221.2520504829
 20
214.9339610669
 30
0.0
 11
-221.2520504829
 21
-3.4660389331
 31
0.0
  0
ARC
  5
D0
330
1F
100
AcDbEntity
  8
0
  6
Continuous
 62
     7
370
    25
100
AcDbCircle
 10
-2906.0593949381
 20
-189.9134111985
 30
0.0
 40
3160.625000000009
100
AcDbArc
 50
0.0
 51
1.441327245
  0
ARC
  5
D1
330
1F
100
AcDbEntity
  8
0
  6
Continuous
 62
     7
370
    25
100
AcDbCircle
 10
3196.7906050619
 20
-189.9134111985
 30
0.0
 40
3160.625000000009
100
AcDbArc
 50
178.558672755
 51
180.0
  0
LINE
  5
D2
330
1F
100
AcDbEntity
  8
0
  6
Continuous
 62
     7
370
    25
100
AcDbLine
 10
36.1656050619
 20
-189.9134111985
 30
0.0
 11
36.1656050619
 21
-214.9134111985
 31
0.0
  0
LINE
  5
D3
330
1F
100
AcDbEntity
  8
0
  6
Continuous
 62
     7
370
    25
100
AcDbLine
 10
254.5656050619
 20
-214.9134111985
 30
0.0
 11
254.5656050619
 21
-189.9134111985
 31
0.0
  0
ARC
  5
D4
330
1F
100
AcDbEntity
  8
0
  6
Continuous
 62
     7
370
    25
100
AcDbCircle
 10
-2906.0593949381
 20
-214.9134111985
 30
0.0
 40
3160.625000000009
100
AcDbArc
 50
358.558672755
 51
0.0
  0
ARC
  5
D5
330
1F
100
AcDbEntity
  8
0
  6
Continuous
 62
     7
370
    25
100
AcDbCircle
 10
3196.7906050619
 20
-214.9134111985
 30
0.0
 40
3160.625000000009
100
AcDbArc
 50
180.0
 51
181.441327245
  0
CIRCLE
  5
D6
330
1F
100
AcDbEntity
  8
0
  6
Continuous
 62
     7
370
    25
100
AcDbCircle
 10
145.3656050619
 20
-122.4134111985
 30
0.0
 40
5.000000000000014
  0
CIRCLE
  5
D7
330
1F
100
AcDbEntity
  8
0
  6
Continuous
 62
     7
370
    25
100
AcDbCircle
 10
145.3656050619
 20
-122.4134111985
 30
0.0
 40
7.000000000000028
  0
CIRCLE
  5
D8
330
1F
100
AcDbEntity
  8
0
  6
Continuous
 62
     7
370
    25
100
AcDbCircle
 10
145.3656050619
 20
-282.4134111985
 30
0.0
 40
7.0
  0
CIRCLE
  5
D9
330
1F
100
AcDbEntity
  8
0
  6
Continuous
 62
     7
370
    25
100
AcDbCircle
 10
145.3656050619
 20
-282.4134111985
 30
0.0
 40
5.0
  0
LINE
  5
DA
330
1F
100
AcDbEntity
  8
0
  6
Continuous
 62
     7
370
    25
100
AcDbLine
 10
37.1656050619
 20
-110.4134111985
 30
0.0
 11
253.5656050619
 21
-110.4134111985
 31
0.0
  0
LINE
  5
DB
330
1F
100
AcDbEntity
  8
0
  6
Continuous
 62
     7
370
    25
100
AcDbLine
 10
37.1656050619
 20
-294.4134111985
 30
0.0
 11
253.5656050619
 21
-294.4134111985
 31
0.0
  0
LINE
  5
DC
330
1F
100
AcDbEntity
  8
0
  6
Continuous
 62
     1
370
    25
100
AcDbLine
 10
36.1656050619
 20
-189.9134111985
 30
0.0
 11
254.5656050619
 21
-189.9134111985
 31
0.0
  0
LINE
  5
DD
330
1F
100
AcDbEntity
  8
0
  6
Continuous
 62
     1
370
    25
100
AcDbLine
 10
36.1656050619
 20
-214.9134111985
 30
0.0
 11
254.5656050619
 21
-214.9134111985
 31
0.0
  0
INSERT
  5
E9
330
1F
100
AcDbEntity
  8
FORMAT
 62
     7
100
AcDbBlockReference
  2
SW_CENTERMARKSYMBOL_1
 10
145.3656050619
 20
-122.4134111985
 30
0.0
  0
INSERT
  5
F5
330
1F
100
AcDbEntity
  8
FORMAT
 62
     7
100
AcDbBlockReference
  2
SW_CENTERMARKSYMBOL_2
 10
145.3656050619
 20
-282.4134111985
 30
0.0
  0
SPLINE
  5
F6
330
1F
100
AcDbEntity
  8
0
  6
Continuous
 62
     7
370
    25
100
AcDbSpline
210
0.0
220
0.0
230
1.0
 70
     8
 71
     3
 72
    11
 73
     7
 74
     0
 42
0.00000001
 43
0.00000001
 40
0.0
 40
0.0
 40
0.0
 40
0.0
 40
0.3246878331843822
 40
0.6571664590682214
 40
0.9895682553125424
 40
1.0
 40
1.0
 40
1.0
 40
1.0
 10
408.3652383490371
 20
-120.3122837304333
 30
0.0
 10
402.1844538869962
 20
-123.9014528941528
 30
0.0
 10
389.6745787883604
 20
-131.1659123202593
 30
0.0
 10
370.995183066177
 20
-142.3689084163722
 30
0.0
 10
358.2856634874879
 20
-150.0771596365269
 30
0.0
 10
351.891455869025
 20
-154.079824524866
 30
0.0
 10
351.6968928132251
 20
-154.2016176786837
 30
0.0
  0
SPLINE
  5
F7
330
1F
100
AcDbEntity
  8
0
  6
Continuous
 62
     7
370
    25
100
AcDbSpline
210
0.0
220
0.0
230
1.0
 70
     8
 71
     3
 72
    11
 73
     7
 74
     0
 42
0.00000001
 43
0.00000001
 40
0.0
 40
0.0
 40
0.0
 40
0.0
 40
0.3269893844694512
 40
0.6595832744023455
 40
0.9921537660654163
 40
0.9999999999999999
 40
0.9999999999999999
 40
0.9999999999999999
 40
0.9999999999999999
 10
459.8676930208995
 20
-341.5806975916287
 30
0.0
 10
466.1990857665911
 20
-338.1599489322346
 30
0.0
 10
478.9703895369149
 20
-331.2598209500022
 30
0.0
 10
498.0357029497407
 20
-320.6079524726758
 30
0.0
 10
510.9340850126227
 20
-313.3184982719364
 30
0.0
 10
517.4050293234163
 20
-309.5397279509663
 30
0.0
 10
517.5541775262581
 20
-309.4526314198798
 30
0.0
  0
LINE
  5
F8
330
1F
100
AcDbEntity
  8
0
  6
Continuous
 62
     7
370
    25
100
AcDbLine
 10
426.0418847481
 20
-110.1047794902
 30
0.0
 11
408.3642152184
 21
-120.3098808879
 31
0.0
  0
LINE
  5
F9
330
1F
100
AcDbEntity
  8
0
  6
Continuous
 62
     7
370
    25
100
AcDbLine
 10
517.5553408223
 20
-309.4549524319
 30
0.0
 11
535.2330103519
 21
-299.2498510341
 31
0.0
  0
LINE
  5
FA
330
1F
100
AcDbEntity
  8
0
  6
Continuous
 62
     7
370
    25
100
AcDbLine
 10
422.2300702902
 20
-153.8684626141
 30
0.0
 11
422.2300702902
 21
-145.6352771849
 31
0.0
  0
LINE
  5
FB
330
1F
100
AcDbEntity
  8
0
  6
Continuous
 62
     7
370
    25
100
AcDbLine
 10
408.2300702902
 20
-145.6352771849
 30
0.0
 11
408.2300702902
 21
-154.039776547
 31
0.0
  0
SPLINE
  5
FC
330
1F
100
AcDbEntity
  8
0
  6
Continuous
 62
     7
370
    25
100
AcDbSpline
210
0.0
220
0.0
230
1.0
 70
     8
 71
     3
 72
    11
 73
     7
 74
     0
 42
0.00000001
 43
0.00000001
 40
0.0
 40
0.0
 40
0.0
 40
0.0
 40
0.3270020949205661
 40
0.6595884889411686
 40
0.9921514852224773
 40
1.0
 40
1.0
 40
1.0
 40
1.0
 10
483.7306975272383
 20
-77.97840138810386
 30
0.0
 10
477.3989157516002
 20
-81.3993597074976
 30
0.0
 10
464.6272227301444
 20
-88.29969693367892
 30
0.0
 10
445.5615222783904
 20
-98.95177882520683
 30
0.0
 10
432.6630937033669
 20
-106.2412606987769
 30
0.0
 10
426.1921027974974
 20
-110.0200585147513
 30
0.0
 10
426.0429078787006
 20
-110.1071823326495
 30
0.0
  0
SPLINE
  5
FD
330
1F
100
AcDbEntity
  8
0
  6
Continuous
 62
     7
370
    25
100
AcDbSpline
210
0.0
220
0.0
230
1.0
 70
     8
 71
     3
 72
    11
 73
     7
 74
     0
 42
0.00000001
 43
0.00000001
 40
0.0
 40
0.0
 40
0.0
 40
0.0
 40
0.3246779158747366
 40
0.657143869832008
 40
0.9895329970749435
 40
1.0
 40
1.0
 40
1.0
 40
1.0
 10
535.2318470559214
 20
-299.2475300220963
 30
0.0
 10
541.4126781948618
 20
-295.6583335244649
 30
0.0
 10
553.9225998582388
 20
-288.3938465953602
 30
0.0
 10
572.6020442733426
 20
-277.1908262381161
 30
0.0
 10
585.3122293099603
 20
-269.4821593457447
 30
0.0
 10
591.7071000324894
 20
-265.4790751589157
 30
0.0
 10
591.9023280732576
 20
-265.3568656074276
 30
0.0
  0
LINE
  5
FE
330
1F
100
AcDbEntity
  8
0
  6
Continuous
 62
     7
370
    25
100
AcDbLine
 10
535.3671552801
 20
-88.7263954046
 30
0.0
 11
535.3671552801
 21
-80.3226282391
 31
0.0
  0
LINE
  5
FF
330
1F
100
AcDbEntity
  8
0
  6
Continuous
 62
     7
370
    25
100
AcDbLine
 10
521.3671552801
 20
-80.3226282391
 30
0.0
 11
521.3671552801
 21
-88.554930835
 31
0.0
  0
LWPOLYLINE
  5
100
330
1F
100
AcDbEntity
  8
0
  6
Continuous
 62
     7
370
    25
100
AcDbPolyline
 90
      131
 70
   128
 43
0.0
 10
330.2358351916
 20
-203.1669602553
 10
330.3251802949
 20
-198.9500647329
 10
330.593006935
 20
-194.8461736258
 10
331.0386895904
 20
-190.864871762
 10
331.6611873487
 20
-187.0154576563
 10
332.4590463375
 20
-183.3069217938
 10
333.4304031201
 20
-179.7479256319
 10
334.5729890478
 20
-176.3467813709
 10
335.8841355582
 20
-173.1114325409
 10
337.3607804079
 20
-170.049435449
 10
338.9994748243
 20
-167.1679415312
 10
340.7963915609
 20
-164.4736806502
 10
342.7473338351
 20
-161.9729453771
 10
344.8477451311
 20
-159.6715762949
 10
347.0927198409
 20
-157.5749483578
 10
349.477014722
 20
-155.6879583375
 10
351.9950611432
 20
-154.0150133866
 10
354.6409780905
 20
-152.5600207456
 10
357.4085859022
 20
-151.3263786172
 10
360.2914207021
 20
-150.3169682297
 10
363.2827494959
 20
-149.5341471079
 10
366.3755858966
 20
-148.9797435667
 10
369.5627064414
 20
-148.6550524415
 10
372.8366674627
 20
-148.5608320632
 10
376.1898224728
 20
-148.6973024879
 10
379.6143400228
 20
-149.0641449828
 10
383.1022219933
 20
-149.66050277
 10
386.6453222743
 20
-150.4849830285
 10
390.235365791
 20
-151.5356601462
 10
393.8639678304
 20
-152.8100802182
 10
397.5226536243
 20
-154.3052667773
 10
401.2028781424
 20
-156.0177277461
 10
404.8960460499
 20
-157.9434635925
 10
408.5935317821
 20
-160.0779766713
 10
412.2866996896
 20
-162.4162817282
 10
415.9669242077
 20
-164.9529175436
 10
419.6256100016
 20
-167.6819596868
 10
423.254212041
 20
-170.5970343536
 10
426.8442555576
 20
-173.6913332519
 10
430.3873558387
 20
-176.9576295033
 10
433.8752378092
 20
-180.3882945216
 10
437.2997553592
 20
-183.9753158296
 10
440.6529103693
 20
-187.7103157729
 10
443.9268713906
 20
-191.5845710861
 10
447.1139919354
 20
-195.5890332664
 10
450.2068283361
 20
-199.7143497067
 10
453.1981571299
 20
-203.9508855394
 10
456.0809919298
 20
-208.2887461388
 10
458.8485997415
 20
-212.7178002304
 10
461.4945166888
 20
-217.2277035532
 10
464.01256311
 20
-221.8079230189
 10
466.3968579911
 20
-226.4477613129
 10
468.6418327009
 20
-231.1363818778
 10
470.7422439969
 20
-235.8628342229
 10
472.6931862711
 20
-240.6160794999
 10
474.4901030077
 20
-245.3850162842
 10
476.1287974241
 20
-250.1585065029
 10
477.6054422738
 20
-254.9254014485
 10
478.9165887842
 20
-259.6745678169
 10
480.0591747119
 20
-264.39491371
 10
481.0305314945
 20
-269.0754145413
 10
481.8283904833
 20
-273.7051387842
 10
482.4508882416
 20
-278.2732735031
 10
482.896570897
 20
-282.7691496079
 10
483.1643975371
 20
-287.1822667716
 10
483.2537426404
 20
-291.5023179545
 10
483.1643975371
 20
-295.7192134769
 10
482.896570897
 20
-299.8231045839
 10
482.4508882416
 20
-303.8044064478
 10
481.8283904833
 20
-307.6538205534
 10
481.0305314945
 20
-311.3623564159
 10
480.0591747119
 20
-314.9213525779
 10
478.9165887842
 20
-318.3224968388
 10
477.6054422738
 20
-321.5578456689
 10
476.1287974241
 20
-324.6198427608
 10
474.4901030077
 20
-327.5013366785
 10
472.6931862711
 20
-330.1955975595
 10
470.7422439969
 20
-332.6963328326
 10
468.6418327009
 20
-334.9977019148
 10
466.3968579911
 20
-337.0943298519
 10
464.01256311
 20
-338.9813198722
 10
461.4945166888
 20
-340.6542648231
 10
458.8485997415
 20
-342.1092574641
 10
456.0809919298
 20
-343.3428995926
 10
453.1981571299
 20
-344.35230998
 10
450.2068283361
 20
-345.1351311018
 10
447.1139919354
 20
-345.689534643
 10
443.9268713906
 20
-346.0142257683
 10
440.6529103693
 20
-346.1084461466
 10
437.2997553592
 20
-345.9719757218
 10
433.8752378092
 20
-345.6051332269
 10
430.3873558387
 20
-345.0087754397
 10
426.8442555576
 20
-344.1842951813
 10
423.254212041
 20
-343.1336180635
 10
419.6256100016
 20
-341.8591979915
 10
415.9669242077
 20
-340.3640114324
 10
412.2866996896
 20
-338.6515504637
 10
408.5935317821
 20
-336.7258146172
 10
404.8960460499
 20
-334.5913015385
 10
401.2028781424
 20
-332.2529964815
 10
397.5226536243
 20
-329.7163606662
 10
393.8639678304
 20
-326.9873185229
 10
390.235365791
 20
-324.0722438562
 10
386.6453222743
 20
-320.9779449579
 10
383.1022219933
 20
-317.7116487064
 10
379.6143400228
 20
-314.2809836882
 10
376.1898224728
 20
-310.6939623801
 10
372.8366674627
 20
-306.9589624368
 10
369.5627064414
 20
-303.0847071236
 10
366.3755858966
 20
-299.0802449434
 10
363.2827494959
 20
-294.954928503
 10
360.2914207021
 20
-290.7183926703
 10
357.4085859022
 20
-286.3805320709
 10
354.6409780905
 20
-281.9514779793
 10
351.9950611432
 20
-277.4415746566
 10
349.477014722
 20
-272.8613551908
 10
347.0927198409
 20
-268.2215168968
 10
344.8477451311
 20
-263.532896332
 10
342.7473338351
 20
-258.8064439868
 10
340.7963915609
 20
-254.0531987098
 10
338.9994748243
 20
-249.2842619255
 10
337.3607804079
 20
-244.5107717068
 10
335.8841355582
 20
-239.7438767612
 10
334.5729890478
 20
-234.9947103928
 10
333.4304031201
 20
-230.2743644997
 10
332.4590463375
 20
-225.5938636684
 10
331.6611873487
 20
-220.9641394256
 10
331.0386895904
 20
-216.3960047066
 10
330.593006935
 20
-211.9001286018
 10
330.3251802949
 20
-207.4870114381
 10
330.2358351916
 20
-203.1669602553
  0
SPLINE
  5
101
330
1F
100
AcDbEntity
  8
0
  6
Continuous
 62
     7
370
    25
100
AcDbSpline
210
0.0
220
0.0
230
1.0
 70
     8
 71
     3
 72
    12
 73
     8
 74
     0
 42
0.00000001
 43
0.00000001
 40
0.0
 40
0.0
 40
0.0
 40
0.0
 40
0.2450954868839894
 40
0.4901966743769642
 40
0.7351695906523417
 40
0.9802085205448208
 40
1.0
 40
1.0
 40
1.0
 40
1.0
 10
413.8767412482816
 20
-157.9864037562886
 30
0.0
 10
413.1208681911532
 20
-157.8443596993301
 30
0.0
 10
411.6091044962515
 20
-157.5602682816493
 30
0.0
 10
409.7695463317533
 20
-156.635941801324
 30
0.0
 10
408.6173860786698
 20
-155.4751004996995
 30
0.0
 10
408.1210007827342
 20
-154.5526472638441
 30
0.0
 10
408.2497952734314
 20
-154.0776817614964
 30
0.0
 10
408.2594204275928
 20
-154.0421863287597
 30
0.0
  0
SPLINE
  5
102
330
1F
100
AcDbEntity
  8
0
  6
Continuous
 62
     7
370
    25
100
AcDbSpline
210
0.0
220
0.0
230
1.0
 70
     8
 71
     3
 72
    13
 73
     9
 74
     0
 42
0.00000001
 43
0.00000001
 40
0.0
 40
0.0
 40
0.0
 40
0.0
 40
0.114022749616299
 40
0.305355483078259
 40
0.4965480776873211
 40
0.6873068811861923
 40
0.8779333190531332
 40
1.0
 40
1.0
 40
1.0
 40
1.0
 10
422.1347714057015
 20
-153.8666663016376
 30
0.0
 10
422.1447487189806
 20
-154.155949294575
 30
0.0
 10
422.1714681879146
 20
-154.9306556435447
 30
0.0
 10
421.332254248837
 20
-156.1209848919914
 30
0.0
 10
419.8014091893705
 20
-157.2253977199318
 30
0.0
 10
417.7256062588083
 20
-157.9227131827992
 30
0.0
 10
415.6514151120582
 20
-158.1463573428464
 30
0.0
 10
414.3750130490175
 20
-158.0313136201431
 30
0.0
 10
413.8767412482816
 20
-157.9864037562886
 30
0.0
  0
LWPOLYLINE
  5
103
330
1F
100
AcDbEntity
  8
0
  6
Continuous
 62
     7
370
    25
100
AcDbPolyline
 90
      120
 70
   128
 43
0.0
 10
342.5394931843
 20
-210.2697108281
 10
342.6289690217
 20
-206.4084993183
 10
342.8971471488
 20
-202.6613563006
 10
343.343280105
 20
-199.0387257344
 10
343.9661244378
 20
-195.550704541
 10
344.7639441683
 20
-192.2070144611
 10
345.7345156297
 20
-189.0169749585
 10
346.8751336655
 20
-185.9894772456
 10
348.1826191684
 20
-183.1329595015
 10
349.653327942
 20
-180.4553833535
 10
351.283160857
 20
-177.9642116865
 10
353.0675752769
 20
-175.6663878428
 10
355.0015977186
 20
-173.5683162695
 10
357.0798377147
 20
-171.6758446685
 10
359.2965028375
 20
-169.9942476975
 10
361.6454148437
 20
-168.5282122689
 10
364.1200268944
 20
-167.2818244864
 10
366.7134418019
 20
-166.2585582562
 10
369.4184312537
 20
-165.4612656049
 10
372.2274559591
 20
-164.8921687302
 10
375.1326866623
 20
-164.552853807
 10
378.1260259644
 20
-164.4442665669
 10
381.1991308918
 20
-164.566709662
 10
384.3434361499
 20
-164.9198418215
 10
387.5501779959
 20
-165.5026788026
 10
390.8104186653
 20
-166.3135961343
 10
394.1150712826
 20
-167.3503336444
 10
397.4549251881
 20
-168.6100017596
 10
400.82067161
 20
-170.0890895589
 10
404.2029296094
 20
-171.7834745592
 10
407.5922722265
 20
-173.6884342058
 10
410.9792527557
 20
-175.7986590344
 10
414.3544310747
 20
-178.10826747
 10
417.7083999561
 20
-180.6108222195
 10
421.0318112872
 20
-183.299348214
 10
424.3154021244
 20
-186.1663520494
 10
427.5500205112
 20
-189.2038428718
 10
430.726650986
 20
-192.4033546495
 10
433.8364397099
 20
-195.7559697693
 10
436.870719144
 20
-199.2523438915
 10
439.8210322072
 20
-202.8827319943
 10
442.6791558479
 20
-206.637015535
 10
445.4371239629
 20
-210.504730652
 10
448.0872496004
 20
-214.4750973296
 10
450.6221463849
 20
-218.5370494437
 10
453.0347491044
 20
-222.6792656052
 10
455.3183334025
 20
-226.8902007147
 10
457.46653452
 20
-231.1581181409
 10
459.4733650353
 20
-235.4711224324
 10
461.3332315517
 20
-239.8171924727
 10
463.0409502877
 20
-244.1842149851
 10
464.5917615248
 20
-248.5600182945
 10
465.9813428739
 20
-252.9324062523
 10
467.2058213228
 20
-257.2891922291
 10
468.2617840302
 20
-261.618233081
 10
469.1462878387
 20
-265.9074629945
 10
469.8568674775
 20
-270.1449271167
 10
470.3915424339
 20
-274.318814875
 10
470.7488224727
 20
-278.4174928957
 10
470.9277117904
 20
-282.4295374279
 10
470.9277117904
 20
-286.343766184
 10
470.7488224727
 20
-290.1492695064
 10
470.3915424339
 20
-293.8354407747
 10
469.8568674775
 20
-297.3920059685
 10
469.1462878387
 20
-300.8090523028
 10
468.2617840302
 20
-304.0770558564
 10
467.2058213228
 20
-307.1869081175
 10
465.9813428739
 20
-310.1299413698
 10
464.5917615248
 20
-312.897952852
 10
463.0409502877
 20
-315.4832276195
 10
461.3332315517
 20
-317.878560048
 10
459.4733650353
 20
-320.0772739162
 10
457.46653452
 20
-322.0732410143
 10
455.3183334025
 20
-323.860898224
 10
453.0347491044
 20
-325.435263024
 10
450.6221463849
 20
-326.7919473772
 10
448.0872496004
 20
-327.9271699611
 10
445.4371239629
 20
-328.8377667067
 10
442.6791558479
 20
-329.5211996175
 10
439.8210322072
 20
-329.9755638434
 10
436.870719144
 20
-330.1995929898
 10
433.8364397099
 20
-330.1926626473
 10
430.726650986
 20
-329.9547921321
 10
427.5500205112
 20
-329.4866444319
 10
424.3154021244
 20
-328.7895243583
 10
421.0318112872
 20
-327.8653749101
 10
417.7083999561
 20
-326.7167718573
 10
414.3544310747
 20
-325.3469165629
 10
410.9792527557
 20
-323.7596270592
 10
407.5922722265
 20
-321.9593274066
 10
404.2029296094
 20
-319.9510353633
 10
400.82067161
 20
-317.7403483994
 10
397.4549251881
 20
-315.333428096
 10
394.1150712826
 20
-312.7369829715
 10
390.8104186653
 20
-309.9582497844
 10
387.5501779959
 20
-307.0049733622
 10
384.3434361498
 20
-303.8853850163
 10
381.1991308918
 20
-300.6081795987
 10
378.1260259644
 20
-297.1824912688
 10
375.1326866623
 20
-293.6178680343
 10
372.2274559591
 20
-289.9242451396
 10
369.4184312537
 20
-286.1119173741
 10
366.7134418019
 20
-282.1915103792
 10
364.1200268944
 20
-278.1739510321
 10
361.6454148437
 20
-274.0704369915
 10
359.2965028375
 20
-269.8924054869
 10
357.0798377147
 20
-265.6515014415
 10
355.0015977186
 20
-261.3595450155
 10
353.0675752769
 20
-257.0284986613
 10
351.283160857
 20
-252.6704337819
 10
349.653327942
 20
-248.2974970856
 10
348.1826191684
 20
-243.9218767315
 10
346.8751336655
 20
-239.5557683582
 10
345.7345156297
 20
-235.2113410929
 10
344.7639441683
 20
-230.9007036336
 10
343.9661244378
 20
-226.6358704999
 10
343.343280105
 20
-222.4287285468
 10
342.8971471488
 20
-218.2910038335
 10
342.6289690217
 20
-214.2342289408
 10
342.5394931843
 20
-210.2697108281
  0
LWPOLYLINE
  5
104
330
1F
100
AcDbEntity
  8
0
  6
Continuous
 62
     7
370
    25
100
AcDbPolyline
 90
       34
 70
   128
 43
0.0
 10
420.1798177585
 20
-142.7778487935
 10
421.0271152412
 20
-143.3702581257
 10
421.6648924153
 20
-144.0445311482
 10
422.070098352
 20
-144.7762978771
 10
422.2280878531
 20
-145.5391103563
 10
422.1331507663
 20
-146.3053985552
 10
421.7887183652
 20
-147.0474668217
 10
421.2072393344
 20
-147.7384948754
 10
420.4097298409
 20
-148.3535071619
 10
419.4250139558
 20
-148.8702755347
 10
418.2886818768
 20
-149.2701226384
 10
417.041803606
 20
-149.538596957
 10
415.7294445726
 20
-149.665995129
 10
414.3990368516
 20
-149.6477126525
 10
413.0986648443
 20
-149.484410304
 10
411.8753273832
 20
-149.1819902557
 10
410.7732390714
 20
-148.7513827562
 10
409.832232252
 20
-148.2081510823
 10
409.0863173633
 20
-147.5719290423
 10
408.5624537127
 20
-146.8657113583
 10
408.2795750975
 20
-146.1150225773
 10
408.247905488
 20
-145.3469945479
 10
408.4685895062
 20
-144.5893858041
 10
408.9336510569
 20
-143.8695782999
 10
409.6262816038
 20
-143.2135877538
 10
410.5214476743
 20
-142.6451233735
 10
411.5867956344
 20
-142.1847309426
 10
412.783821033
 20
-141.8490502433
 10
414.0692602535
 20
-141.6502136505
 10
415.3966541731
 20
-141.5954076369
 10
416.7180273171
 20
-141.6866130345
 10
417.9856218174
 20
-141.9205334426
 10
419.1536235059
 20
-142.2887143683
 10
420.1798177585
 20
-142.7778487935
  0
LWPOLYLINE
  5
105
330
1F
100
AcDbEntity
  8
0
  6
Continuous
 62
     7
370
    25
100
AcDbPolyline
 90
       29
 70
   128
 43
0.0
 10
418.7656041962
 20
-143.5942569053
 10
419.4636912864
 20
-144.0995992838
 10
419.9494869418
 20
-144.6819469647
 10
420.1986313397
 20
-145.3120986036
 10
420.1986313397
 20
-145.9584557661
 10
419.9494869418
 20
-146.588607405
 10
419.4636912864
 20
-147.1709550859
 10
418.7656041962
 20
-147.6762974644
 10
417.8902306728
 20
-148.0792945636
 10
416.8814656
 20
-148.359738426
 10
415.7898926708
 20
-148.5035664255
 10
414.6702479097
 20
-148.5035664255
 10
413.5786749805
 20
-148.359738426
 10
412.5699099077
 20
-148.0792945636
 10
411.6945363843
 20
-147.6762974644
 10
410.9964492941
 20
-147.1709550859
 10
410.5106536387
 20
-146.588607405
 10
410.2615092408
 20
-145.9584557661
 10
410.2615092408
 20
-145.3120986036
 10
410.5106536387
 20
-144.6819469647
 10
410.9964492941
 20
-144.0995992838
 10
411.6945363843
 20
-143.5942569053
 10
412.5699099077
 20
-143.1912598062
 10
413.5786749805
 20
-142.9108159437
 10
414.6702479097
 20
-142.7669879443
 10
415.7898926708
 20
-142.7669879443
 10
416.8814656
 20
-142.9108159437
 10
417.8902306728
 20
-143.1912598062
 10
418.7656041962
 20
-143.5942569053
  0
LWPOLYLINE
  5
106
330
1F
100
AcDbEntity
  8
0
  6
Continuous
 62
     7
370
    25
100
AcDbPolyline
 90
       14
 70
   128
 43
0.0
 10
483.7278464811
 20
-77.9778208351
 10
484.7486258288
 20
-77.4504744579
 10
487.5162336406
 20
-76.2168323295
 10
490.3990684404
 20
-75.207421942
 10
493.3903972342
 20
-74.4246008202
 10
496.4832336349
 20
-73.8701972791
 10
499.6703541797
 20
-73.5455061538
 10
502.944315201
 20
-73.4512857755
 10
506.2974702111
 20
-73.5877562003
 10
509.7219877611
 20
-73.9545986951
 10
513.2098697316
 20
-74.5509564824
 10
516.7529700127
 20
-75.3754367408
 10
520.3430135294
 20
-76.4261138585
 10
523.3889066251
 20
-77.4817485232
  0
LWPOLYLINE
  5
107
330
1F
100
AcDbEntity
  8
0
  6
Continuous
 62
     7
370
    25
100
AcDbPolyline
 90
       50
 70
   128
 43
0.0
 10
535.3671552801
 20
-83.0345920851
 10
538.7011795204
 20
-84.9684303836
 10
542.3943474279
 20
-87.3067354405
 10
546.0745719461
 20
-89.8433712559
 10
549.7332577399
 20
-92.5724133991
 10
553.3618597793
 20
-95.4874880659
 10
556.951903296
 20
-98.5817869642
 10
560.495003577
 20
-101.8480832156
 10
563.9828855475
 20
-105.2787482339
 10
567.4074030975
 20
-108.8657695419
 10
570.7605581076
 20
-112.6007694853
 10
574.0345191289
 20
-116.4750247984
 10
577.2216396738
 20
-120.4794869787
 10
580.3144760744
 20
-124.604803419
 10
583.3058048682
 20
-128.8413392517
 10
586.1886396681
 20
-133.1791998511
 10
588.9562474798
 20
-137.6082539427
 10
591.6021644271
 20
-142.1181572655
 10
594.1202108484
 20
-146.6983767312
 10
596.5045057294
 20
-151.3382150252
 10
598.7494804392
 20
-156.0268355901
 10
600.8498917352
 20
-160.7532879352
 10
602.8008340095
 20
-165.5065332123
 10
604.597750746
 20
-170.2754699965
 10
606.2364451625
 20
-175.0489602153
 10
607.7130900121
 20
-179.8158551608
 10
609.0242365225
 20
-184.5650215292
 10
610.1668224502
 20
-189.2853674223
 10
611.1381792328
 20
-193.9658682536
 10
611.9360382216
 20
-198.5955924965
 10
612.5585359799
 20
-203.1637272155
 10
613.0042186354
 20
-207.6596033203
 10
613.2720452755
 20
-212.0727204839
 10
613.3613903787
 20
-216.3927716668
 10
613.2720452755
 20
-220.6096671892
 10
613.0042186354
 20
-224.7135582962
 10
612.5585359799
 20
-228.6948601601
 10
611.9360382216
 20
-232.5442742657
 10
611.1381792328
 20
-236.2528101282
 10
610.1668224502
 20
-239.8118062902
 10
609.0242365225
 20
-243.2129505512
 10
607.7130900121
 20
-246.4482993812
 10
606.2364451625
 20
-249.5102964731
 10
604.597750746
 20
-252.3917903908
 10
602.8008340095
 20
-255.0860512718
 10
600.8498917352
 20
-257.586786545
 10
598.7494804392
 20
-259.8881556271
 10
596.5045057294
 20
-261.9847835642
 10
594.1202108484
 20
-263.8717735845
 10
591.9018212128
 20
-265.361209364
  0
SPLINE
  5
108
330
1F
100
AcDbEntity
  8
0
  6
Continuous
 62
     7
370
    25
100
AcDbSpline
210
0.0
220
0.0
230
1.0
 70
     8
 71
     3
 72
    12
 73
     8
 74
     0
 42
0.00000001
 43
0.00000001
 40
0.0
 40
0.0
 40
0.0
 40
0.0
 40
0.2436470145998439
 40
0.4873143820526039
 40
0.7305529214192722
 40
0.973971288058072
 40
1.0
 40
1.0
 40
1.0
 40
1.0
 10
527.0550935420429
 20
-92.47684847335846
 30
0.0
 10
526.2991263493483
 20
-92.32459080164053
 30
0.0
 10
524.7871288148618
 20
-92.02006273948533
 30
0.0
 10
522.9404553656462
 20
-91.09723727748539
 30
0.0
 10
521.7725793283522
 20
-89.96431921254374
 30
0.0
 10
521.2658056511309
 20
-89.06359088845377
 30
0.0
 10
521.3925591541405
 20
-88.60237890890576
 30
0.0
 10
521.4048036009345
 20
-88.55782561917236
 30
0.0
  0
SPLINE
  5
109
330
1F
100
AcDbEntity
  8
0
  6
Continuous
 62
     7
370
    25
100
AcDbSpline
210
0.0
220
0.0
230
1.0
 70
     8
 71
     3
 72
    13
 73
     9
 74
     0
 42
0.00000001
 43
0.00000001
 40
0.0
 40
0.0
 40
0.0
 40
0.0
 40
0.1107059018929619
 40
0.3023053293373738
 40
0.4936646044911978
 40
0.6849273530645138
 40
0.8765162561126827
 40
0.9999999999999999
 40
0.9999999999999999
 40
0.9999999999999999
 40
0.9999999999999999
 10
535.2702329662875
 20
-88.72493319882886
 30
0.0
 10
535.282433815851
 20
-88.99409485372358
 30
0.0
 10
535.3157507554398
 20
-89.72909634268319
 30
0.0
 10
534.4924527478648
 20
-90.84524269326826
 30
0.0
 10
532.9774888793577
 20
-91.87213676549597
 30
0.0
 10
530.9129606926182
 20
-92.49759690396425
 30
0.0
 10
528.8394982088945
 20
-92.6693252148766
 30
0.0
 10
527.5575260079327
 20
-92.53104389531845
 30
0.0
 10
527.0550935420429
 20
-92.47684847335846
 30
0.0
  0
LWPOLYLINE
  5
10A
330
1F
100
AcDbEntity
  8
0
  6
Continuous
 62
     7
370
    25
100
AcDbPolyline
 90
       34
 70
   128
 43
0.0
 10
523.4174078118
 20
-83.1800566304
 10
522.5701103291
 20
-82.5876472982
 10
521.932333155
 20
-81.9133742757
 10
521.5271272183
 20
-81.1816075468
 10
521.3691377172
 20
-80.4187950676
 10
521.4640748041
 20
-79.6525068688
 10
521.8085072051
 20
-78.9104386022
 10
522.3899862359
 20
-78.2194105485
 10
523.1874957294
 20
-77.604398262
 10
524.1722116145
 20
-77.0876298892
 10
525.3085436935
 20
-76.6877827855
 10
526.5554219644
 20
-76.4193084669
 10
527.8677809977
 20
-76.2919102949
 10
529.1981887187
 20
-76.3101927714
 10
530.498560726
 20
-76.4734951199
 10
531.7218981871
 20
-76.7759151682
 10
532.8239864989
 20
-77.2065226678
 10
533.7649933183
 20
-77.7497543416
 10
534.5109082071
 20
-78.3859763816
 10
535.0347718576
 20
-79.0921940657
 10
535.3176504728
 20
-79.8428828466
 10
535.3493200824
 20
-80.610910876
 10
535.1286360641
 20
-81.3685196198
 10
534.6635745135
 20
-82.088327124
 10
533.9709439666
 20
-82.7443176701
 10
533.075777896
 20
-83.3127820504
 10
532.0104299359
 20
-83.7731744813
 10
530.8134045373
 20
-84.1088551806
 10
529.5279653169
 20
-84.3076917734
 10
528.2005713973
 20
-84.362497787
 10
526.8791982532
 20
-84.2712923895
 10
525.611603753
 20
-84.0373719813
 10
524.4436020644
 20
-83.6691910557
 10
523.4174078118
 20
-83.1800566304
  0
LWPOLYLINE
  5
10B
330
1F
100
AcDbEntity
  8
0
  6
Continuous
 62
     7
370
    25
100
AcDbPolyline
 90
       29
 70
   128
 43
0.0
 10
524.8316213742
 20
-82.3636485186
 10
524.1335342839
 20
-81.8583061401
 10
523.6477386285
 20
-81.2759584592
 10
523.3985942306
 20
-80.6458068203
 10
523.3985942306
 20
-79.9994496578
 10
523.6477386285
 20
-79.3692980189
 10
524.1335342839
 20
-78.786950338
 10
524.8316213742
 20
-78.2816079595
 10
525.7069948975
 20
-77.8786108604
 10
526.7157599703
 20
-77.5981669979
 10
527.8073328996
 20
-77.4543389985
 10
528.9269776606
 20
-77.4543389985
 10
530.0185505899
 20
-77.5981669979
 10
531.0273156627
 20
-77.8786108604
 10
531.902689186
 20
-78.2816079595
 10
532.6007762762
 20
-78.786950338
 10
533.0865719316
 20
-79.3692980189
 10
533.3357163296
 20
-79.9994496578
 10
533.3357163296
 20
-80.6458068203
 10
533.0865719316
 20
-81.2759584592
 10
532.6007762762
 20
-81.8583061401
 10
531.902689186
 20
-82.3636485186
 10
531.0273156627
 20
-82.7666456178
 10
530.0185505899
 20
-83.0470894802
 10
528.9269776606
 20
-83.1909174797
 10
527.8073328996
 20
-83.1909174797
 10
526.7157599703
 20
-83.0470894802
 10
525.7069948975
 20
-82.7666456178
 10
524.8316213742
 20
-82.3636485186
  0
LWPOLYLINE
  5
10C
330
1F
100
AcDbEntity
  8
0
  6
Continuous
 62
     1
370
    25
100
AcDbPolyline
 90
       67
 70
   128
 43
0.0
 10
408.3638703336
 20
-120.3100799882
 10
410.0208092373
 20
-119.4098921637
 10
412.7767648832
 20
-118.1445572177
 10
415.6481430676
 20
-117.1017224484
 10
418.6283395284
 20
-116.2837864093
 10
421.7104997184
 20
-115.6926303793
 10
424.8875345703
 20
-115.3296140364
 10
428.1521368022
 20
-115.1955723297
 10
431.4967977244
 20
-115.2908135594
 10
434.9138245094
 20
-115.6151186678
 10
438.3953578863
 20
-116.1677417426
 10
441.9333902167
 20
-116.9474117331
 10
445.5197839128
 20
-117.9523353733
 10
449.1462901543
 20
-119.1802013066
 10
452.8045678604
 20
-120.628185402
 10
456.4862028754
 20
-122.2929572498
 10
460.1827273207
 20
-124.1706878212
 10
463.8856390716
 20
-126.2570582759
 10
467.5864213123
 20
-128.5472698949
 10
471.2765621253
 20
-131.0360551181
 10
474.9475740683
 20
-133.7176896598
 10
478.5910136962
 20
-136.5860056745
 10
482.1985009812
 20
-139.6344059435
 10
485.7617385868
 20
-142.8558790486
 10
489.2725309524
 20
-146.2430154982
 10
492.7228031431
 20
-149.7880247701
 10
496.1046194223
 20
-153.4827532294
 10
499.410201504
 20
-157.3187028821
 10
502.6319464437
 20
-161.2870509211
 10
505.7624441247
 20
-165.3786700188
 10
508.7944943021
 20
-169.5841493202
 10
511.7211231632
 20
-173.8938160881
 10
514.5355993678
 20
-178.2977579508
 10
517.2314495307
 20
-182.7858457008
 10
519.8024731098
 20
-187.3477565927
 10
522.2427566688
 20
-191.972998085
 10
524.546687477
 20
-196.6509319742
 10
526.70896642
 20
-201.3707988624
 10
528.7246201868
 20
-206.1217429046
 10
530.5890127091
 20
-210.8928367771
 10
532.2978558244
 20
-215.6731068112
 10
533.8472191388
 20
-220.4515582326
 10
535.233539067
 20
-225.2172004499
 10
536.4536270288
 20
-229.9590723334
 10
537.5046767827
 20
-234.6662674256
 10
538.3842708806
 20
-239.3279590271
 10
539.090386228
 20
-243.9334250978
 10
539.6213987368
 20
-248.4720729181
 10
539.9760870613
 20
-252.9334634527
 10
540.153635407
 20
-257.3073353602
 10
540.153635407
 20
-261.5836285952
 10
539.9760870613
 20
-265.7525075462
 10
539.6213987368
 20
-269.804383658
 10
539.090386228
 20
-273.7299374858
 10
538.3842708806
 20
-277.5201401298
 10
537.5046767827
 20
-281.1662740026
 10
536.4536270288
 20
-284.6599528794
 10
535.233539067
 20
-287.9931411868
 10
533.8472191388
 20
-291.158172485
 10
532.2978558244
 20
-294.1477671005
 10
530.5890127091
 20
-296.9550488699
 10
528.7246201868
 20
-299.5735609551
 10
526.70896642
 20
-301.9972806945
 10
524.546687477
 20
-304.220633455
 10
522.2427566688
 20
-306.2385054539
 10
519.8024731098
 20
-308.0462555211
 10
517.5555547774
 20
-309.4548289173
  0
LWPOLYLINE
  5
10D
330
1F
100
AcDbEntity
  8
0
  6
Continuous
 62
     1
370
    25
100
AcDbPolyline
 90
       67
 70
   128
 43
0.0
 10
426.0418847481
 20
-110.1047794902
 10
427.6984787669
 20
-109.204790766
 10
430.4544344129
 20
-107.9394558199
 10
433.3258125972
 20
-106.8966210507
 10
436.3060090581
 20
-106.0786850115
 10
439.3881692481
 20
-105.4875289815
 10
442.5652041
 20
-105.1245126386
 10
445.8298063319
 20
-104.9904709319
 10
449.174467254
 20
-105.0857121617
 10
452.5914940391
 20
-105.41001727
 10
456.073027416
 20
-105.9626403448
 10
459.6110597464
 20
-106.7423103353
 10
463.1974534425
 20
-107.7472339755
 10
466.8239596839
 20
-108.9750999088
 10
470.4822373901
 20
-110.4230840042
 10
474.1638724051
 20
-112.087855852
 10
477.8603968504
 20
-113.9655864234
 10
481.5633086012
 20
-116.0519568781
 10
485.264090842
 20
-118.3421684971
 10
488.954231655
 20
-120.8309537204
 10
492.6252435979
 20
-123.512588262
 10
496.2686832259
 20
-126.3809042767
 10
499.8761705108
 20
-129.4293045458
 10
503.4394081165
 20
-132.6507776508
 10
506.9502004821
 20
-136.0379141004
 10
510.4004726728
 20
-139.5829233724
 10
513.7822889519
 20
-143.2776518316
 10
517.0878710337
 20
-147.1136014843
 10
520.3096159734
 20
-151.0819495233
 10
523.4401136544
 20
-155.1735686211
 10
526.4721638317
 20
-159.3790479224
 10
529.3987926928
 20
-163.6887146903
 10
532.2132688975
 20
-168.092656553
 10
534.9091190603
 20
-172.580744303
 10
537.4801426395
 20
-177.1426551949
 10
539.9204261984
 20
-181.7678966872
 10
542.2243570067
 20
-186.4458305764
 10
544.3866359497
 20
-191.1656974647
 10
546.4022897164
 20
-195.9166415068
 10
548.2666822387
 20
-200.6877353793
 10
549.9755253541
 20
-205.4680054134
 10
551.5248886685
 20
-210.2464568348
 10
552.9112085967
 20
-215.0120990522
 10
554.1312965585
 20
-219.7539709356
 10
555.1823463124
 20
-224.4611660278
 10
556.0619404103
 20
-229.1228576293
 10
556.7680557576
 20
-233.7283237
 10
557.2990682664
 20
-238.2669715203
 10
557.653756591
 20
-242.7283620549
 10
557.8313049367
 20
-247.1022339624
 10
557.8313049367
 20
-251.3785271974
 10
557.653756591
 20
-255.5474061484
 10
557.2990682664
 20
-259.5992822603
 10
556.7680557576
 20
-263.524836088
 10
556.0619404103
 20
-267.315038732
 10
555.1823463124
 20
-270.9611726048
 10
554.1312965585
 20
-274.4548514816
 10
552.9112085967
 20
-277.788039789
 10
551.5248886685
 20
-280.9530710872
 10
549.9755253541
 20
-283.9426657027
 10
548.2666822387
 20
-286.7499474721
 10
546.4022897164
 20
-289.3684595573
 10
544.3866359497
 20
-291.7921792967
 10
542.2243570067
 20
-294.0155320572
 10
539.9204261984
 20
-296.0334040562
 10
537.4801426395
 20
-297.8411541234
 10
535.2330103519
 20
-299.2498510341
  0
ENDSEC
  0
SECTION
  2
OBJECTS
  0
DICTIONARY
  5
C
330
0
100
AcDbDictionary
281
     1
  3
ACAD_GROUP
350
D
  3
ACAD_LAYOUT
350
1A
  3
ACAD_MLINESTYLE
350
17
  3
ACAD_PLOTSETTINGS
350
19
  3
ACAD_PLOTSTYLENAME
350
E
  3
ACAD_SCALELIST
350
47
  3
DWGPROPS
350
10E
  0
DICTIONARY
  5
D
102
{ACAD_REACTORS
330
C
102
}
330
C
100
AcDbDictionary
281
     1
  0
DICTIONARY
  5
1A
102
{ACAD_REACTORS
330
C
102
}
330
C
100
AcDbDictionary
281
     1
  3
Layout1
350
1E
  3
Layout2
350
26
  3
Model
350
22
  0
DICTIONARY
  5
17
102
{ACAD_REACTORS
330
C
102
}
330
C
100
AcDbDictionary
281
     1
  3
Standard
350
18
  0
DICTIONARY
  5
19
102
{ACAD_REACTORS
330
C
102
}
330
C
100
AcDbDictionary
281
     1
  0
ACDBDICTIONARYWDFLT
  5
E
102
{ACAD_REACTORS
330
C
102
}
330
C
100
AcDbDictionary
281
     1
  3
Normal
350
F
100
AcDbDictionaryWithDefault
340
F
  0
DICTIONARY
  5
47
102
{ACAD_REACTORS
330
C
102
}
330
C
100
AcDbDictionary
281
     1
  3
A0
350
48
  3
A1
350
49
  3
A2
350
4A
  3
A3
350
4B
  3
A4
350
4C
  3
A5
350
4D
  3
A6
350
4E
  3
A7
350
4F
  3
A8
350
50
  3
A9
350
51
  3
B0
350
52
  3
B1
350
53
  3
B2
350
54
  3
B3
350
55
  3
B4
350
56
  3
B5
350
57
  3
B6
350
58
  3
B7
350
59
  3
B8
350
5A
  3
B9
350
5B
  3
C0
350
5C
  3
C1
350
5D
  3
C2
350
5E
  3
C3
350
5F
  3
C4
350
60
  3
C5
350
61
  3
C6
350
62
  3
C7
350
63
  3
C8
350
64
  3
C9
350
65
  3
D0
350
66
  3
D1
350
67
  3
D2
350
68
  0
XRECORD
  5
10E
102
{ACAD_REACTORS
330
C
102
}
330
C
100
AcDbXrecord
280
     1
  1
DWGPROPS COOKIE
  2

  3

  4

  6

  7

  8
b.kav
  9

300
=
301
=
302
=
303
=
304
=
305
=
306
=
307
=
308
=
309
=
 40
0.0
 41
2459935.585301389
 42
2459935.585301435
  1

 90
        0
  0
LAYOUT
  5
1E
102
{ACAD_REACTORS
330
1A
102
}
330
1A
100
AcDbPlotSettings
  1

  2
none_device
  4

  6

 40
0.0
 41
0.0
 42
0.0
 43
0.0
 44
0.0
 45
0.0
 46
0.0
 47
0.0
 48
0.0
 49
0.0
140
0.0
141
0.0
142
1.0
143
1.0
 70
   688
 72
     1
 73
     0
 74
     5
  7

 75
    16
147
1.0
148
0.0
149
0.0
100
AcDbLayout
  1
Layout1
 70
     1
 71
     1
 10
0.0
 20
0.0
 11
420.0
 21
297.0
 12
0.0
 22
0.0
 32
0.0
 14
1.0000000000E+20
 24
1.0000000000E+20
 34
1.0000000000E+20
 15
-1.0000000000E+20
 25
-1.0000000000E+20
 35
-1.0000000000E+20
146
0.0
 13
0.0
 23
0.0
 33
0.0
 16
1.0
 26
0.0
 36
0.0
 17
0.0
 27
1.0
 37
0.0
 76
     0
330
1B
  0
LAYOUT
  5
26
102
{ACAD_REACTORS
330
1A
102
}
330
1A
100
AcDbPlotSettings
  1

  2
none_device
  4

  6

 40
0.0
 41
0.0
 42
0.0
 43
0.0
 44
0.0
 45
0.0
 46
0.0
 47
0.0
 48
0.0
 49
0.0
140
0.0
141
0.0
142
1.0
143
1.0
 70
   688
 72
     1
 73
     0
 74
     5
  7

 75
    16
147
1.0
148
0.0
149
0.0
100
AcDbLayout
  1
Layout2
 70
     1
 71
     2
 10
0.0
 20
0.0
 11
0.0
 21
0.0
 12
0.0
 22
0.0
 32
0.0
 14
0.0
 24
0.0
 34
0.0
 15
0.0
 25
0.0
 35
0.0
146
0.0
 13
0.0
 23
0.0
 33
0.0
 16
1.0
 26
0.0
 36
0.0
 17
0.0
 27
1.0
 37
0.0
 76
     0
330
23
  0
LAYOUT
  5
22
102
{ACAD_REACTORS
330
1A
102
}
330
1A
100
AcDbPlotSettings
  1

  2
none_device
  4
Letter_(8.50_x_11.00_Inches)
  6

 40
6.35
 41
6.35
 42
6.35000508
 43
6.35000508
 44
215.9
 45
279.4
 46
0.0
 47
0.0
 48
0.0
 49
0.0
140
0.0
141
0.0
142
1.0
143
1.0
 70
  1712
 72
     1
 73
     0
 74
     0
  7

 75
     0
147
1.0
148
0.0
149
0.0
100
AcDbLayout
  1
Model
 70
     1
 71
     0
 10
0.0
 20
0.0
 11
279.4
 21
215.9
 12
0.0
 22
0.0
 32
0.0
 14
0.0
 24
0.0
 34
0.0
 15
279.4
 25
215.9
 35
0.0
146
0.0
 13
0.0
 23
0.0
 33
0.0
 16
1.0
 26
0.0
 36
0.0
 17
0.0
 27
1.0
 37
0.0
 76
     0
330
1F
331
29
  0
MLINESTYLE
  5
18
102
{ACAD_REACTORS
330
17
102
}
330
17
100
AcDbMlineStyle
  2
Standard
 70
     0
  3

 62
   256
 51
90.0
 52
90.0
 71
     2
 49
0.5
 62
   256
  6
BYLAYER
 49
-0.5
 62
   256
  6
BYLAYER
  0
ACDBPLACEHOLDER
  5
F
102
{ACAD_REACTORS
330
E
102
}
330
E
  0
SCALE
  5
48
102
{ACAD_REACTORS
330
47
102
}
330
47
100
AcDbScale
 70
     0
300
1:1
140
1.0
141
1.0
290
     1
  0
SCALE
  5
49
102
{ACAD_REACTORS
330
47
102
}
330
47
100
AcDbScale
 70
     0
300
1:2
140
1.0
141
2.0
290
     0
  0
SCALE
  5
4A
102
{ACAD_REACTORS
330
47
102
}
330
47
100
AcDbScale
 70
     0
300
1:4
140
1.0
141
4.0
290
     0
  0
SCALE
  5
4B
102
{ACAD_REACTORS
330
47
102
}
330
47
100
AcDbScale
 70
     0
300
1:5
140
1.0
141
5.0
290
     0
  0
SCALE
  5
4C
102
{ACAD_REACTORS
330
47
102
}
330
47
100
AcDbScale
 70
     0
300
1:8
140
1.0
141
8.0
290
     0
  0
SCALE
  5
4D
102
{ACAD_REACTORS
330
47
102
}
330
47
100
AcDbScale
 70
     0
300
1:10
140
1.0
141
10.0
290
     0
  0
SCALE
  5
4E
102
{ACAD_REACTORS
330
47
102
}
330
47
100
AcDbScale
 70
     0
300
1:16
140
1.0
141
16.0
290
     0
  0
SCALE
  5
4F
102
{ACAD_REACTORS
330
47
102
}
330
47
100
AcDbScale
 70
     0
300
1:20
140
1.0
141
20.0
290
     0
  0
SCALE
  5
50
102
{ACAD_REACTORS
330
47
102
}
330
47
100
AcDbScale
 70
     0
300
1:30
140
1.0
141
30.0
290
     0
  0
SCALE
  5
51
102
{ACAD_REACTORS
330
47
102
}
330
47
100
AcDbScale
 70
     0
300
1:40
140
1.0
141
40.0
290
     0
  0
SCALE
  5
52
102
{ACAD_REACTORS
330
47
102
}
330
47
100
AcDbScale
 70
     0
300
1:50
140
1.0
141
50.0
290
     0
  0
SCALE
  5
53
102
{ACAD_REACTORS
330
47
102
}
330
47
100
AcDbScale
 70
     0
300
1:100
140
1.0
141
100.0
290
     0
  0
SCALE
  5
54
102
{ACAD_REACTORS
330
47
102
}
330
47
100
AcDbScale
 70
     0
300
2:1
140
2.0
141
1.0
290
     0
  0
SCALE
  5
55
102
{ACAD_REACTORS
330
47
102
}
330
47
100
AcDbScale
 70
     0
300
4:1
140
4.0
141
1.0
290
     0
  0
SCALE
  5
56
102
{ACAD_REACTORS
330
47
102
}
330
47
100
AcDbScale
 70
     0
300
8:1
140
8.0
141
1.0
290
     0
  0
SCALE
  5
57
102
{ACAD_REACTORS
330
47
102
}
330
47
100
AcDbScale
 70
     0
300
10:1
140
10.0
141
1.0
290
     0
  0
SCALE
  5
58
102
{ACAD_REACTORS
330
47
102
}
330
47
100
AcDbScale
 70
     0
300
100:1
140
100.0
141
1.0
290
     0
  0
SCALE
  5
59
102
{ACAD_REACTORS
330
47
102
}
330
47
100
AcDbScale
 70
     0
300
1/128" = 1'-0"
140
0.0078125
141
12.0
290
     0
  0
SCALE
  5
5A
102
{ACAD_REACTORS
330
47
102
}
330
47
100
AcDbScale
 70
     0
300
1/64" = 1'-0"
140
0.015625
141
12.0
290
     0
  0
SCALE
  5
5B
102
{ACAD_REACTORS
330
47
102
}
330
47
100
AcDbScale
 70
     0
300
1/32" = 1'-0"
140
0.03125
141
12.0
290
     0
  0
SCALE
  5
5C
102
{ACAD_REACTORS
330
47
102
}
330
47
100
AcDbScale
 70
     0
300
1/16" = 1'-0"
140
0.0625
141
12.0
290
     0
  0
SCALE
  5
5D
102
{ACAD_REACTORS
330
47
102
}
330
47
100
AcDbScale
 70
     0
300
3/32" = 1'-0"
140
0.09375
141
12.0
290
     0
  0
SCALE
  5
5E
102
{ACAD_REACTORS
330
47
102
}
330
47
100
AcDbScale
 70
     0
300
1/8" = 1'-0"
140
0.125
141
12.0
290
     0
  0
SCALE
  5
5F
102
{ACAD_REACTORS
330
47
102
}
330
47
100
AcDbScale
 70
     0
300
3/16" = 1'-0"
140
0.1875
141
12.0
290
     0
  0
SCALE
  5
60
102
{ACAD_REACTORS
330
47
102
}
330
47
100
AcDbScale
 70
     0
300
1/4" = 1'-0"
140
0.25
141
12.0
290
     0
  0
SCALE
  5
61
102
{ACAD_REACTORS
330
47
102
}
330
47
100
AcDbScale
 70
     0
300
3/8" = 1'-0"
140
0.375
141
12.0
290
     0
  0
SCALE
  5
62
102
{ACAD_REACTORS
330
47
102
}
330
47
100
AcDbScale
 70
     0
300
1/2" = 1'-0"
140
0.5
141
12.0
290
     0
  0
SCALE
  5
63
102
{ACAD_REACTORS
330
47
102
}
330
47
100
AcDbScale
 70
     0
300
3/4" = 1'-0"
140
0.75
141
12.0
290
     0
  0
SCALE
  5
64
102
{ACAD_REACTORS
330
47
102
}
330
47
100
AcDbScale
 70
     0
300
1" = 1'-0"
140
1.0
141
12.0
290
     0
  0
SCALE
  5
65
102
{ACAD_REACTORS
330
47
102
}
330
47
100
AcDbScale
 70
     0
300
1-1/2" = 1'-0"
140
1.5
141
12.0
290
     0
  0
SCALE
  5
66
102
{ACAD_REACTORS
330
47
102
}
330
47
100
AcDbScale
 70
     0
300
3" = 1'-0"
140
3.0
141
12.0
290
     0
  0
SCALE
  5
67
102
{ACAD_REACTORS
330
47
102
}
330
47
100
AcDbScale
 70
     0
300
6" = 1'-0"
140
6.0
141
12.0
290
     0
  0
SCALE
  5
68
102
{ACAD_REACTORS
330
47
102
}
330
47
100
AcDbScale
 70
     0
300
1'-0" = 1'-0"
140
12.0
141
12.0
290
     0
  0
ENDSEC
  0
EOF
